Está en la página 1de 24

Enviado por Hector

Enva el tono de "Estrellita" a tu celular/mvil


sta muy facil esta cancion
e/-------------0-0-------------------------------B/--------3-3-------3--------1-1--0-0------------G/-0-0------------------------------------2-2--0-D/-----------------------------------------------A/-----------------------------------------------E/-----------------------------------------------e/---------------------------------------------B/--3-3--1-1--0-0-------3-3--1-1--0-0----------G/---------------------2----------------------2D/---------------------------------------------A/---------------------------------------------E/---------------------------------------------e/-----------0-0-------------------------------B/------3-3-------3--------1-1--0-0------------G/-0-0--------------------------------2-2--0---D/---------------------------------------------A/---------------------------------------------E/---------------------------------------------esto s para los principiantes y reqerden vyva pxndx!!
y la "guytarra es la neta"
La Pantera Rosa
1|
2|
3|
7 6 -7-6-6-7
4|1-2-3-4 6 7 3 4 6 7 7 6 -7-6 55
5|
6|
1|
-7
5
2|
7
-5
3|
7
5 -7-7-7-7 7 5
4|1 2 3 4
-7-5 5-7-0
5|
6|
Nota; En esta parte(2da) tienen que usarla con 2 Dedos. En la parte de la 1ra cu
erda hasta la tercera van subiendo de 7 a 5 ,y asi en la 1ra ,2da y 3ra cuerda.
Msica Clasica
El Danubio Azul(TAB)
calidad:
mcla1902
AUTOR: Johann strauss
ALBUM: desconocido
Enviado por Juan
Enva el tono de "El Danubio Azul" a tu celular/mvil
e|-----0-3-3--15-15--12-12---B|-1-1-----------------------G|---------------------------D|---------------------------A|---------------------------E|---------------------------e|-----0-3-3--15-15--13-13----

B|-1-1-----------------------G|---------------------------D|---------------------------A|---------------------------E|---------------------------e|-------5-5--17-17--13-13---B|-0-0-3---------------------G|---------------------------D|---------------------------A|---------------------------E|---------------------------e|-------5-5--17-17--12-12---B|-0-0-3---------------------G|---------------------------D|---------------------------A|---------------------------E|---------------------------e|-----0-3-8--7?-7?--15-15---B|-1-1-----------------------G|---------------------------D|---------------------------A|---------------------------E|---------------------------e|-----0-3-8--7?-7?--17-17---B|-1-1-----------------------G|---------------------------D|---------------------------A|---------------------------E|---------------------------e|-----1-5-5--2-3-12--8-0-0----5--3--8-B|-3-3-----------------------3-------5-G|-------------------------------------D|-------------------------------------A|-------------------------------------E|-------------------------------------mi e-mail: juanda0612@gmail.com


Msica Clasica
Beethoven - Para Elisa(TAB)
calidad:
mcla0193
AUTOR: Msica Clasica corregir
ALBUM: desconocido
Enviado por LALO
Enva el tono de "Beethoven - Para Elisa" a tu celular/mvil
LAS PARTES DE LAS CUERDAS 6 5 Y 4 SON EL ACOMPAAMIENTO
E--12--11-12-11-12--7-10-8-5---------5--7-------4-7-8-|---|
B----------------------------------5----------5-------|-5-|
G--------------------------------5--------------------|---|
D------------------------------7------------6---------|---|
A----------------------------7------------7-----------|---|
E--------------------------5------------0-------------|---|
E-12-11-12-11-12--7-10-8-5---------5--7-------8-7-5-----|

B--------------------------------5----------5-----------|
G------------------------------5------------------------|
D----------------------------7------------6-----------7-|
A--------------------------7------------7-----------7---|
E------------------------5------------0-----------5-----|
E-12-11-12-11-12--7-10-8-5---------5--7-------4-7-8-|---|
B--------------------------------5----------5-------|-5-|
G------------------------------5--------------------|---|
D----------------------------7------------6---------|---|
A--------------------------7------------7-----------|---|
E------------------------5------------0-------------|---|
E-12-11-12-11-12--7-10-8-5---------5--7-------8-7-5-----|
B--------------------------------5----------5-----------|
G------------------------------5------------------------|
D----------------------------7------------6-----------7-|
A--------------------------7------------7-----------7---|
E------------------------5------------0-----------5-----|
E-7-8-10-12-------|---13-12-10----|---12-10-8-----|
B-----------------|-8-------------|-6-------------|
G-----------------|---------------|---------------|
D--------------10-|-------------9-|-------------7-|
A-----------10----|-----------10--|-----------7---|
E---------8-------|---------------|---------5-----|
E---10-8-7------0-0-12-0-12-12-24-|
B-5-------------------------------|
G---------------------------------|
D------------6--------------------|
A----------7----------------------|
E--------0------------------------|
E-11-12-11-12-11-12-11-12-11-12-11-12-|
B-------------------------------------|
G-------------------------------------|
D-------------------------------------|
A-------------------------------------|
E-------------------------------------|
E-7-10-8-5---------5-7--------4-7-8-----|---|
B----------------5----------5-----------|-5-|
G--------------5------------------------|---|
D------------7-----------6------------7-|---|
A----------7-----------7------------7---|---|
E--------5-----------0------------5-----|---|
E-12-11-12-11-12--7-10-8-5---------5--7-------8-7-5-----|
B--------------------------------5----------5-----------|
G------------------------------5------------------------|
D----------------------------7------------6-----------7-|
A--------------------------7------------7-----------7---|
E------------------------5------------0-----------5-----|

E-7-8-10-12-------|---13-12-10----|---12-10-8-----|
B-----------------|-8-------------|-6-------------|
G-----------------|---------------|---------------|
D--------------10-|-------------9-|-------------7-|
A-----------10----|-----------10--|-----------7---|
E---------8-------|---------------|---------5-----|

E---10-8-7------0-0-12-0-12-12-24-|
B-5-------------------------------|
G---------------------------------|
D------------6--------------------|
A----------7----------------------|
E--------0------------------------|
E-11-12-11-12-11-12-11-12-11-12-11-12-|
B-------------------------------------|
G-------------------------------------|
D-------------------------------------|
A-------------------------------------|
E-------------------------------------|
E-7-10-8-5---------5-7--------4-7-8-----|---|
B----------------5----------5-----------|-5-|
G--------------5------------------------|---|
D------------7-----------6------------7-|---|
A----------7-----------7------------7---|---|
E--------5-----------0------------5-----|---|
E-12-11-12-11-12--7-10-8-5---------5--7-------8-7-5-----|
B--------------------------------5----------5-----------|
G------------------------------5------------------------|
D----------------------------7------------6-----------7-|
A--------------------------7------------7-----------7---|
E------------------------5------------0-----------5-----|
Aqu A UNA PARTE QUE NORMALMENTE NO LA PONEN PARA GUITARRA
E---------0---------8---13--12-12--10-|-18--17-17--15-|
B-13--13--13-----10-------------------|---------------|
G-9---10--12--10----------------------|---------------|
D-------------------------------------|---------------|
A-------------------------------------|---------------|
E-------------------------------------|---------------|
E-13-12-10-8-6-5---6-5-3-5-6-8-|
B------------------------------|
G------------------------------|
D------------------------------|
A------------------------------|

E------------------------------|
E--10-11-12---12-13---5-8---10--7-8-|
B-----------------------------------|
G-----------------------------------|
D-----------------------------------|
A-----------------------------------|
E-----------------------------------|
ESTA PARTE ES RAPIDA
E-15--15--15--15--15--12--15---20-19-17-15-13-12-10-|
B-----------12--13--15------------------------------|
G---12--14------------------------------------------|
D---------------------------------------------------|
A---------------------------------------------------|
E---------------------------------------------------|
E-15-13-10-8-|
B------------|
G------------|
D------------|
A------------|
E------------|
E-15--15--15--15--15--12--15---20-19-17-15-13-12-10-|
B-----------12--13--15------------------------------|
G---12--14------------------------------------------|
D---------------------------------------------------|
A---------------------------------------------------|
E---------------------------------------------------|
E-15-13-10-12-13-12-11-12---|-12-11-12--12-11-12--12-11-12--|
B------------------------12-|---------12--------12--------12|
G---------------------------|-------------------------------|
D---------------------------|-------------------------------|
A---------------------------|-------------------------------|
E---------------------------|-------------------------------|
E-12-11-12---|----12--11--12-----|
B---------12-|----------------12-|
G------------|-------------------|
D------------|-------------------|
A------------|-------------------|
E------------|-------------------|
VUELVE A VELOCIDAD NORMAL
E-12-11-12-11-12-11-12-11-12-11-12-11-12-|
B----------------------------------------|
G----------------------------------------|
D----------------------------------------|
A----------------------------------------|
E----------------------------------------|
E-7-10-8-5---------5-7--------4-7-8-----|---|

B----------------5----------5-----------|-5-|
G--------------5------------------------|---|
D------------7-----------6------------7-|---|
A----------7-----------7------------7---|---|
E--------5-----------0------------5-----|---|
E-12-11-12-11-12--7-10-8-5---------5--7-------8-7-5-----|
B--------------------------------5----------5-----------|
G------------------------------5------------------------|
D----------------------------7------------6-----------7-|
A--------------------------7------------7-----------7---|
E------------------------5------------0-----------5-----|
E-7-8-10-12-------|---13-12-10----|---12-10-8-----|
B-----------------|-8-------------|-6-------------|
G-----------------|---------------|---------------|
D--------------10-|-------------9-|-------------7-|
A-----------10----|-----------10--|-----------7---|
E---------8-------|---------------|---------5-----|

E---10-8-7------0-0-12-0-12-12-24-|
B-5-------------------------------|
G---------------------------------|
D------------6--------------------|
A----------7----------------------|
E--------0------------------------|
E-11-12-11-12-11-12-11-12-11-12-11-12-|
B-------------------------------------|
G-------------------------------------|
D-------------------------------------|
A-------------------------------------|
E-------------------------------------|
E-7-10-8-5---------5-7--------4-7-8-----|---|
B----------------5----------5-----------|-5-|
G--------------5------------------------|---|
D------------7-----------6------------7-|---|
A----------7-----------7------------7---|---|
E--------5-----------0------------5-----|---|
E-12-11-12-11-12--7-10-8-5---------5--7-------8---7---5-----|
B--------------------------------5----------5---------------|
G------------------------------5----------------------------|
D----------------------------7------------6-----------------|
A--------------------------7------------7-------------------|
E------------------------5------------0---------------5-----|

ESTA PARTE EL DIFCIL PERO CON PRACTICA SI SE PUEDE


E-------------0-----------10---------12-13---13-------13-|
B-------------11----------10---------14-15---15-------15-|
G-------------12----------10-----------------13-------13-|
D--------------------------------------------------------|
A--------------------------------------------------------|
E--------------------------------------------------------|
E-------12-----------10------8-7-5-------5---5---8---7---5-|
B-------13-----------------------7-------------------------|
G-------14-----------10------9-7-5-------5---5---9---7---5-|
D----------------------------------------------------------|
A----------------------------------------------------------|
E----------------------------------------------------------|

E-----------0------------10---------12-13-13------13---13-|
B-----------11-----------10---------14-15-15------15---15-|
G-----------12-----------10-------------------------------|
D---------------------------------------------------------|
A---------------------------------------------------------|
E---------------------------------------------------------|
E-11-----10-8-6-5-4--4--8----7--|
B-------------6-6-6--3--5----5--|
G-12-----10-8-7-7-7-----5-------|
D----------------------------6--|
A----------------------------7--|
E-------------------------------|
EN ESTA ARTE ES MAS AGUDO
PERO LA GUITARRA NO ALCANZA ESE TIPO DE AGUDES COMO EL PIANO
ASI QUE SE LOS PONDRE MAS GRAVE
E-----------0-----------0-5-7-12-10-8-7-5-8-12-17-20-24-|
B---------1---3-1-0---1---------------------------------|
G-------2-----------2-----------------------------------|
D-----2-------------------------------------------------|
A-0-3---------------------------------------------------|
E-------------------------------------------------------|
E-22-20-19-18-17-16-15-14-13-|
B----------------------------|
G----------------------------|
D----------------------------|
A----------------------------|
E----------------------------|
ESTO YA EL NORMAL
E-12-11-12--7-10-8-5---------5--7-------4-7-8-|---|
B--------------------------5----------5-------|-5-|
G------------------------5--------------------|---|

D----------------------7------------6---------|---|
A--------------------7------------7-----------|---|
E------------------5------------0-------------|---|
E-12-11-12-11-12--7-10-8-5---------5--7-------8-7-5-----|
B--------------------------------5----------5-----------|
G------------------------------5------------------------|
D----------------------------7------------6-----------7-|
A--------------------------7------------7-----------7---|
E------------------------5------------0-----------5-----|
E-7-8-10-12-------|---13-12-10----|---12-10-8-----|
B-----------------|-8-------------|-6-------------|
G-----------------|---------------|---------------|
D--------------10-|-------------9-|-------------7-|
A-----------10----|-----------10--|-----------7---|
E---------8-------|---------------|---------5-----|
E---10-8-7------0-0-12-0-12-12-24-|
B-5-------------------------------|
G---------------------------------|
D------------6--------------------|
A----------7----------------------|
E--------0------------------------|
E-11-12-11-12-11-12-11-12-11-12-11-12-|
B-------------------------------------|
G-------------------------------------|
D-------------------------------------|
A-------------------------------------|
E-------------------------------------|
E-7-10-8-5---------5-7--------4-7-8-----|---|
B----------------5----------5-----------|-5-|
G--------------5------------------------|---|
D------------7-----------6------------7-|---|
A----------7-----------7------------7---|---|
E--------5-----------0------------5-----|---|
E-12-11-12-11-12--7-10-8-5---------5--7-------8-7-5-----|
B--------------------------------5----------5-----------|
G------------------------------5------------------------|
D----------------------------7------------6-----------7-|
A--------------------------7------------7-----------7---|
E------------------------5------------0-----------5-----|

E-7-8-10-12-------|---13-12-10----|---12-10-8-----|
B-----------------|-8-------------|-6-------------|

G-----------------|---------------|---------------|
D--------------10-|-------------9-|-------------7-|
A-----------10----|-----------10--|-----------7---|
E---------8-------|---------------|---------5-----|
E---10-8-7------0-0-12-0-12-12-24-|
B-5-------------------------------|
G---------------------------------|
D------------6--------------------|
A----------7----------------------|
E--------0------------------------|
E-11-12-11-12-11-12-11-12-11-12-11-12-|
B-------------------------------------|
G-------------------------------------|
D-------------------------------------|
A-------------------------------------|
E-------------------------------------|
E-7-10-8-5---------5-7--------4-7-8-----|---|
B----------------5----------5-----------|-5-|
G--------------5------------------------|---|
D------------7-----------6------------7-|---|
A----------7-----------7------------7---|---|
E--------5-----------0------------5-----|---|
E-12-11-12-11-12--7-10-8-5---------5--7-------8---7---5-|
B--------------------------------5----------5-----------|
G------------------------------5------------------------|
D----------------------------7------------6-------------|
A--------------------------7------------7---------------|
E------------------------5------------0---------------5-|
Msica Clasica
Balada para adelina(TAB)
calidad:
mcla1673
AUTOR: Msica Clasica corregir
ALBUM: desconocido
Enviado por Pablo
Enva el tono de "Balada para adelina" a tu celular/mvil
Hola aqui he modificado la tablatura espero que le sirvan.
Deben de recordar que balada para adelina es un vals y
para que se escuche bien tienes que darle el timpo correcto
cualquier duda o comentarios elvielos a pablo_hdz_@hotmail.com
(pueden descargar la partutura o manderme un mail)
(manden sus comentarios sobre la partitura
y asi poder hacer modificaciones, o si tiene errores)
Moderate = 70
Inicio es de 4/4
C
E||----------------------------------|------0-------0-------0-------0---|
B||--------3-------3-------3-------3-|----------------------------------|
G||------5-------5-------5-------5---|----0---0---0---0---0---0---0---0-|

D||----5-------5-------5-------5-----|----------------------------------|
A||--3-------3-------3-------3-------|--3-------3-------3-------3-------|
E||----------------------------------|----------------------------------|
C
Dm
--0-----0-----------0----1-|--1-----1h-----1-1-1-1-1-1-1-3-|
---------------------------|-----------------------------0-|
--0-----0-----------0----2-|--2-----2------L-2-2-2-2-2-2---|
--------2-----2-----2------|--------3------3-------3-------|
---------------------------|-----0------0------0-------0---|
-----3-----3-----3-----3---|-------------------------------|
G7
C
--3-----3-----------3----5-|--0-----------------------|
--0-----0-----------0------|--------------------------|
--0--0-----0-----0-------5-|--0-----------------------|
---------------------------|--------2-----2-----2-----|
--------------2------------|--------------------------|
--3-----3-----------3------|-----3-----3-----3-----3--|
C
Dm
|---0-----0------L-0-0-0-0-0-0-1-|--1-----1------L-1-1-1-1-1-1-3-|
|--------------------------------|-----------------------------0-|
|*--0-----0h-----0-0-0-0-0-0-0-2-|--2-----2h-----2-2-2-2-2-2-2---|
|*--------2------2-------2-------|--------3------3-------3-------|
|--------------------------------|-----0------0------0-------0---|
|------3------3------3-------3---|-------------------------------|
G7
--3-----3-----------3----5-|--0-----------------------|
--0-----0-----------0------|--------------------------|
--0--0-----0-----0-------5-|--0--------------0--------|
-----------------------0---|--------2-----2-----------|
--------2-----2-----2------|--3-----------------3--2--|
--3-----3-----------3------|-----3-----3--------------|

----0-12-0-10-0--8-----0-7---5---0---|
------13---12---10-------8-0-7-0-8-0-|
-------------------9---------0-------|
----2------10----------9-------------|
--0------------------7---------------|
---------0----0------------7---7-----|
F
G7
C
--5-------3----1---0----------------------|
--6----------0---0-------1-------1--------|
----------0----0-------0-------0----------|
--3---3--------3-----2-------0------------|
----3---3-2----0---3-------2-------3-2-0--|
------------------------------------------|
Am
Em
|-------0----------------------------|
|-------1---3---1--------0-----------|

|-----------4---2--------0---2---0---|
|-----2---2---2---2----------4---2---|
|--0--------3----------2---2---2-2-2-|
|-------0-------0---0--------3-------|
F
G7
aqui es de 2/4
----------------------------------|----------------------------------|
----------------------------------|------------------------3-------3-|
--2------0----0h-0--------------0-|--------0-------0-----0-------0---|
------------3-----------3-----3---|------3-------3-----3-------3-----|
--3-------------------5-----5-----|----5-------5-----5-------5-------|
-----1h--1----------3-----3-------|--3-------3-----------------------|

y aqui vuelve a 4/4


--------3-------3---------10---------10------6-------6---------8----------8-------7-------7--------10---------10-------5-------5-------12---------12--------------------------------------------------------------------------------------8va----------------------------------------------|
----------15----------15-------22-27-------22-27-------18----------18-------24----------24----------19----------19-------24----------24----------17----------17---------------------------------------------------------------------------------------------------------------------------------C
Dm
--0-----0-----------0----1-|--1-----1h-----1-1-1-1-1-1-1-3-|
---------------------------|-----------------------------0-|
--0-----0-----------0----2-|--2-----2------L-2-2-2-2-2-2---|
--------2-----2-----2------|--------3------3-------3-------|
---------------------------|-----0------0------0-------0---|
-----3-----3-----3-----3---|-------------------------------|
-------------------------------|
| 1era Repeticin
G7
C
Eb
F
G7
--3-----3-----------3----5-|--0----3--0-----1-----------------||
--0-----0-----------0----1-|-------0----0-----1-----3--0------||
-----0-----0-----0---------|--0-----------0-2---2---0----0---*||
-----------------0---------|-------2--------3-----3--------0-*||
--------2-----2------------|--3-------------------------------||
--3-----3-----------3--3---|------------------------3---------||
---------------------------|
| 2da Repeticin
C
F
G7
C
--0-----------1-----1-3------5-||---0-----0-----------0----1-|
------------------1--------3---||----------------------------|
--0--------2----2-----0--4-----||*--0-----0-----------0----2-|

--------3-----3----------------||*--------2-----2-----2------|
-----3-------------------------||----------------------------|
-------------------------------||------3-----3-----3-----3---|
Dm
G7
--1-----1h-----1-1-1-1-1-1-1-3-|--3-----3-----------3----5-|
-----------------------------0-|--0-----0-----------0----1-|
--2-----2------L-2-2-2-2-2-2---|-----0-----0-----0---------|
--------3------3-------3-------|-----------------0---------|
-----0------0------0-------0---|--------2-----2------------|
-------------------------------|--3-----3-----------3--3---|
C
F
G7
C
F
G7
--0-----------1-----1-3------5--||--0-----------1-----1-3------5-|
------------------1--------3----||------------------1--------3---|
--0--------2----2-----0--4-----*||--0--------2----2-----0--4-----|
--------3-----3----------------*||--------3-----3----------------|
-----3--------------------------||-----3-------------------------|
--------------------------------||-------------------------------|
fine
C
W
--0----------------||
--1----------------||
--0----------------||
--2----------------||
--3----------------||
--3----------------||
Leyenda de Tablatura
---------------h - hammer on
Msica Clasica
Historia de un amor
calidad:
mcla1741
AUTOR: Msica Clasica corregir
ALBUM: desconocido
Enviado por Jos
Enva el tono de "Historia de un amor" a tu celular/mvil
aqui les va una melodia melodia bastante antigua pero inmortal:
1|-----------------------------------------------------------2|-1-----1-1-----1-1--------------0-0------0-0---------------3|-----------------------------------------------------------4|---2-2-----2-2-----2-3-2-0-0-0------0-0------0-2-0---------5|---------------------------------------------------3-3-3---6|-----------------------------------------------------------1|-----------------------------------------------------------2|-----------0-0-0-----0------1-----1-1-----1-1--------------3|-2-2-------------1-2---------------------------------------4|-------0---------------3-2----2-2-----2-2-----2-3-2-0-0-0--5|-----3---3-------------------------------------------------6|------------------------------------------------------------

1|-----------------------------------------------------------2|-0-0-----0-0-------------------------------0-0-0-----0---2-3|-------------------------2-2-----2-2-------------1-2---0---4|-----0-0-----0-2-0---------------------0-------------------5|-------------------3-3-3-----3-3-----3---3-----------------6|-----------------------------------------------------------1|---0---1---1-----------1---0---0-----------0---------------2|-3---------------0-0-3---3---------------1---1-3-0-3-0-1---3|-----2---2---2-2-------------0---0-0-2-2-------------------4|-----------------------------------------------------------5|-----------------------------------------------------------6|-----------------------------------------------------------1|---0-----0-1-----------------------------------------------2|-3-----1---------1-1-0-1-3-----------0---------------2--1--3|-----2-------0-2-------------------0---2-2-0-------4--3----4|---------------------------3-2-2-3-----------3-2-1---------5|-----------------------------------------------------------6|-----------------------------------------------------------escuchen la melodia y le recomiendo que les hagan sus efectos de sonido corespon
dientes
esta es la version de piano a guitarra, pero si realmente quieren la
version de guitarra acustica o electrica comuniquense conmigo a mi email.
pero les aviso que estas versiones son bastante tediosas para sacar, pero
les aseguro que son mucho mejores.
Msica Clasica
J.S. Bach - Minuet(TAB) calidad:
mcla0621
AUTOR: Joan Sebastian Bach
ALBUM: desconocido
Enviado por Jos
Enva el tono de "J.S. Bach - Minuet" a tu celular/mvil
Bueno, a mi me encanta la musica clasica y pues estoy
enviando esto, esperando que la gente del atame lo acepte.
3/4 tiempo
andantino
estas lineas indican los cuartos
|
|
|
|
|
|
|
|
|
|
|
|
|------------------|------------------|-0-----------0--2-|-3----------------|
|-3-----------0--1-|-3----------------|-------1--3-------|------------------|
|-------0--2-------|-------0-----0----|------------------|-------0-----0----|
|------------------|------------------|------------------|------------------|
|-------------0----|-2----------------|-3----------------|-2----------------|
|-3----------------|------------------|------------------|------------------|
|------------------|------------------|------------------|------------------|
|-1-----3--1--0----|-0-----1--0-------|-------------0----|------------------|
|----------------2-|-------------2--0-|-------0--2-----0-|-4p2--------------|
|------------------|------------------|-4----------------|-0-----0----------|
|-3----------------|------------------|-5-----2----------|----------3--2--0-|
|------------------|-3----------------|-------------3----|------------------|
|------------------|------------------|-0-----------0--2-|-3----------------|
|-3-----------0--1-|-3----------------|-------1--3-------|------------------|

|-------0--2-------|-------0-----0----|------------------|-------0-----0----|
|------------------|------------------|------------------|------------------|
|-2-----------0----|-------2----------|-3----------------|-2-----3--2--0----|
|------------------|-3-----------3----|------------------|----------------3-|
|------------------|------------------|------------------|------------------|
|-1-----3--1--0----|-0-----1--0-------|-------0----------|-0----------------|
|----------------2-|-------------2--0-|-2--------2--0----|------------------|.
|------------------|------------------|-------0--------4-|------------------|.
|-0----------------|-------------2----|-3-----------5----|------------------|
|-------------2----|-3----------------|------------------|-3-----------3----|
Parte II
|
|
|
|
|
|
|
|
|
|
|
|
|-7-----3--5--7--3-|-5-----------2----|-3-----0--2--3----|------------------|
|------------------|-------3--5-----3-|----------------3-|-2-----0h2--------|
|-0----------------|------------------|-------0----------|-2-----------2----|
|------------------|-4----------------|-2-----------2----|------------------|
|------------------|------------------|------------------|------------------|
|------------------|------------------|------------------|------------------|
|-------------0--2-|-3-----2-----0----|-2----------------|------------------|
|----0--2--3-------|------------------|-------------2----|-3----------------|
|-2----------------|------------------|-------2----------|------------------|
|------------------|-------0----------|-0----------------|-0-----0----------|
|-0----------------|-2-----------4----|-------------0----|-------------3----|
|------------------|------------------|-------2----------|------------------|
|------------------|-0----------------|------------------|------------------|
|-3----------------|------------------|-3-----1-----0----|------------------|
|-------0-----0----|-------0-----0----|------------------|-2--0-----0--2----|
|-------0--4-------|-------2--4-------|------------------|-------4----------|
|-2-----------2----|-3-----------3----|-2-----0----------|-5----------------|
|------------------|------------------|-------------3----|------------------|
|------------------|------------------|------------------|------------------|
|----------------0-|-1-----0----------|-0--3-------------|------------------|
|----------0h2-----|-------0-----2----|-0-----0----------|-0----------------|.
|-0h2---4----------|-2-----------4----|-------------4----|-------0----------|.
|-5----------------|------------------|-------2-----5----|------------------|
|------------------|------------------|------------------|-3-----------3----|
Msica Clasica
JS Bach - Bourre in E Mineur(TAB)
calidad:
mcla1611
AUTOR: Johan Sebastian Bach
ALBUM: desconocido
Enviado por Jorge
Enva el tono de "JS Bach - Bourre in E Mineur" a tu celular/mvil
PRIMERA PARTE
e -----0--2--3---2--0------0--2-----------------------------------------------------------0--2B ---------------------4---------0---2--4--5---3--1--0-------------------0-----0
---------------G -------------------------------------------------------2--0------0--2-----2----4--2---------D -------------------------------------------------------------4---------------2
----------------

A ---------------0-----2---0-----------------------------0-----2---0--------------------------E -----3--2--0-------------------3---2-----0---2-----3-------------------3----------0--2--3--2-

e
B
G
D
A
E

-3---2--0------0--2-----------------------------------------------|
-----------4---------0---2--4--5---3--1--0------------------------|
---------------------------------------------2--0--------0---0----|
---------------------------------------------------4--4------0----|
-----0-----2---0-----------------------------3-----5--5------2----|
-0-------------------3---2-----0---2-----3-------------------3----|

e -----0--2--3---2--0------0--2-----------------------------------------------------------0--2B ---------------------4---------0---2--4--5---3--1--0-------------------0-----0
---------------G -------------------------------------------------------2--0------0--2-----2----4--2---------D -------------------------------------------------------------4---------------2
---------------A ---------------0-----2---0-----------------------------0-----2---0--------------------------E -----3--2--0-------------------3---2-----0---2-----3-------------------3----------0--2--3--2-

e
B
G
D
A
E

-3---2--0------0--2-----------------------------------------------||
-----------4---------0---2--4--5---3--1--0------------------------||
---------------------------------------------2--0--------0---0----||
---------------------------------------------------4--4------0----||
-----0-----2---0-----------------------------3-----5--5------2----||
-0-------------------3---2-----0---2-----3-------------------3----||

SEGUNDA PARTE
e -----------------------3----------------------------------------------------------------B ---0-----3------1--0------3--5---0--3-------------------0--1------------------------3---G ------0------2-------------------------5---4--2--1---2---------4--2--2-----------------2D -------------0-----------------------------0-----2---------2------------------------0---A -----------------------2-----3---------0-------------0---------------0--2--0------------E ---3--2--2---------3-------------4-----------------------------0-------------3--2-------e -----3------------------5--------------------------------------------------7----4---2--0--5---0--3B -0-----3--5---0--3---------5--7-------------2------------0--0----------------7---------------------

G --------------------5-------------6--9--7------4--3-4-3-------------------------------------------D ------------------------------0-------------2-----4-----------------------------2---0-------------A -----2----3---------0---4-----------------------------------------------6-----------------4---0---E -3------------4-------------------6-----7----------------2--7--6--7--9-----7-----------------------

e -2---0-----3-------------5---------------------------------------------------------B --------3------3--6--5------5--7---2--5--4--0-----------5--------------------------G -----------------------------------------------------------4--5-----7-----4----5---D -0---------------------------------------------------------------------7----------5A -----3-----2---------3-------------------2-----3--2--0-----------7--9-----3--6


--7---E ---------------3---------7-----5---2--------------------4-----5---------------------

e
B
G
D
A
E

-------------------------------------------------|
-------------------------------------------------|
-2-----4-----0-------------------0---------------|
----------4------4--2--1---2--4------4--2--2-----|
----4--6-----0---0-----2---0-----2---------------|
-2-----------------------------------------0-----|

e -----------------------3----------------------------------------------------------------B ---0-----3------1--0------3--5---0--3-------------------0--1------------------------3---G ------0------2-------------------------5---4--2--1---2---------4--2--2-----------------2D -------------0-----------------------------0-----2---------2------------------------0---A -----------------------2-----3---------0-------------0---------------0--2--0------------E ---3--2--2---------3-------------4-----------------------------0-------------3--2-------e -----3------------------5--------------------------------------------------7----4---2--0--5---0--3B -0-----3--5---0--3---------5--7-------------2------------0--0----------------7--------------------G --------------------5-------------6--9--7------4--3-4-3-------------------------------------------D ------------------------------0-------------2-----4-----------------------------2---0-------------A -----2----3---------0---4-----------------------------------------------6-----------------4---0---E -3------------4-------------------6-----7----------------2--7--6--7--9-----7-----------------------

e -2---0-----3-------------5---------------------------------------------------------B --------3------3--6--5------5--7---2--5--4--0-----------5--------------------------G -----------------------------------------------------------4--5-----7-----4----5---D -0---------------------------------------------------------------------7----------5A -----3-----2---------3-------------------2-----3--2--0-----------7--9-----3--6


--7---E ---------------3---------7-----5---2--------------------4-----5---------------------

e
B
G
D
A
E

-------------------------------------------------||
-------------------------------------------------||
-2-----4-----0-------------------0---------------||
----------4------4--2--1---2--4------4--2--2-----||
----4--6-----0---0-----2---0-----2---------------||
-2-----------------------------------------0-----||

Msica Clasica
Liebestrum(TAB) calidad:
mcla0711
AUTOR: F Liszt
ALBUM: desconocido
Enviado por Juan
Enva el tono de "Liebestrum" a tu celular/mvil
Liebestraum by Franz Liszt (1811 - 1886)
~~~~~~~~~~~
Arranged by David At inson November 1994.
Retune the low E string to D to play this piece.
The 'm's denote the melody since as the arpeggios often
overlap them they can be easily overloo ed.
The melody note (in this case the highest note beneath
the 'm') should be emphasized and extracted from the
accompaniment.
p =
h =
s =
===

pull-off
hammer-on
slide
= sustain

Time signature is 6/4.


Please email mista es, suggestions and fan mail ;) to:
aum0@central.susx.ac.u
Enjoy...
Dolce Cantando
p
m
m
|
|
|
|
E-|------------------------|-0-----------0----------|
B-|------------------------|-------1-----------1----|

G-|---------------------0--|-----0---0-------0---0--|
D-|------------------------|---2-------2---2-------2|
A-|------------------------|-3-----------3----------|
D-|------------------------|------------------------|
m
m
m
m m
m
|
|
|
|
E-|-0-------------------0--|-0-------0---1-------0--|
B-|-3-----3-----------3----|-2-----2-----------2----|
G-|-----1---1-------1---1--|-----2---0-------2---0--|
D-|---2-------2---2-------2|---2-------2---2-------2|
A-|-2-----------2----------|-0-----------0----------|
D-|------------------------|------------------------|
m
m
m
m m m m
m
|
|
|
|
E-|-0----------------------|-------------0----------|
B-|-1-----1-----------1----|-----0---1---0-------3--|
G-|-----2---2---2---2---2--|-2-----0-0---------0---0|
D-|---4-------4---4-------4|---0-3-----0-----3------|
A-|-------------0----------|-0-------------5--------|
D-|-0----------------------|-------------5----------|
m
m m
m
|
|
|
|
E-|------------------------|-0-----------0----------|
B-|-1-----1-----------1----|-------1-----------1----|
G-|-----0---0-------0-----0|-----0---0-------0---0--|
D-|---2-------2---2-----2--|---2-------2---2-------2|
A-|-3-----------3----------|-3-----------3----------|
D-|------------------------|------------------------|
m
m
m
m m
m
|
|
|
|
E-|-0-------------------0--|-0-------1---0-------1--|
B-|-3-----3-----------3----|-2-----2-----------2----|
G-|-----1---1-------1---1--|-----2---0-------2---0--|
D-|---2-------2---2-------2|---2-------2---2-------2|
A-|-2-----------1----------|-0-----------0----------|
D-|------------------------|------------------------|
m
m
m m m m
m
|
|
|
|
|
E-|-5----------------------|-------------0----------|
B-|-------3-----------3----|-----0---1---0-------3--|
G-|-5---5---5-------2---2--|-2-----0-0--------------|
D-|---4-------4---4-------4|---0-3-----0-3-------0--|
A-|------------------------|-0----------------------|
D-|-0-----------0----------|-------------5----------|
Arpeggiate these chords from here on (if you li e).
m
m m
m m
m
|
|
|
|
E-|------------------------|------------------------|
B-|-1-----1-----------1---1|-1-----1---0-1-----1---3|
G-|-0---0---0-------0---0--|-2---2---2---2---2---2--|
D-|-2-2-------2---2--------|-2-2---------3-3--------|
A-|-3-----------3----------|-0-----------3----------|
D-|------------------------|------------------------|

m
m m
m m
m
|
|
|
|
E-|-0---------------------0|-0-----------0-----0---2|
B-|-1-----1-----------1---1|-1-----1---4-1---1---1--|
G-|-0---0---0-------0---0--|-2---2---2---2-2--------|
D-|-2-2-------2---2--------|-2-2---------2----------|
A-|-3-----------3----------|-0----------------------|
D-|------------------------|------------------------|
II.m.........2/3III
m
m
|
|
|
|
|
E-|-4-----------3----------|-0-----------0----------|
B-|------------(6)---------|-------1-----------1----|
G-|-------4-------------0--|-----0---0-------0---0--|
D-|-----2---2---3----------|---2-------2---2-------2|
A-|---2-------2------------|-3-----------3----------|
D-|-2-----------5----------|------------------------|
^
Do NOT arpeggiate
m
m
m
m m
m
|
|
|
|
E-|-0-------------------0--|-0-------0---1-------0--|
B-|-3-----3-----------3----|-2-----2-----------2----|
G-|-----1---1-------1---1--|-----2---0-------2---0--|
D-|---2-------2---2-------2|---2-------2---2-------2|
A-|-2-----------1----------|-0-----------0----------|
D-|------------------------|------------------------|
m
m
m m m m
m
|
|
|
|
E-|-5----------------------|-------------0----------|
B-|-------3-----------3----|-----0---1---0-------3--|
G-|-5---5---5-------2---2--|-2-----0-0---------0---0|
D-|---4-------4---4-------4|---0-3-----0-----3------|
A-|------------------------|-0-------------5--------|
D-|-0-----------0----------|-------------5----------|
m
|
|
|
|
E-|---------------------0--|-3-----------1-------0--|
B-|-1==============-4------|-0----------------------|
G-|-0==============-----0--|-------------2-------0--|
D-|-2==============-4------|------------------------|
A-|-3==============--------|------------------------|
D-|------------------------|------------------------|
|
|
E-|-0======================|
B-|-1======================|
G-|-0======================|
D-|------------------------|
A-|-3======================|
D-|------------------------|
Msica Clasica
Mussete en D(TAB)
calidad:
mcla0781
AUTOR: Msica Clasica corregir

ALBUM: desconocido
Enviado por Archie
Enva el tono de "Mussete en D" a tu celular/mvil
, . , .
, . , .
, . , .
, . , .
||-------------------|------------------|-----------------|---------------|
||--10-------8p7-----|-10-------8p7-----|-----------------|---------------|
||*--------------9p7-|--------------9p7-|-----------------|---------------|
||*------0-------0---|------0-------0---|-4/5/7---5---4---|-2--/7---4---0-|
||-------------------|------------------|-----------------|---------------|
||---0-------0-------|--0-------0-------|-4/5/7---5---4---|-2--/7---4---0-|
, . , .
, . , .
, . , .
, . , .
|------------------|------------------|-----------------|----------------||
|-10-------8p7-----|-10-------8p7-----|-----------------|----------------||
|--------------9p7-|--------------9p7-|-----------------|---------------*||
|------0-------0---|------0-------0---|-4/5/7---5---4---|-2--/7---0-----*||
|------------------|------------------|-----------------|----------------||
|--0-------0-------|--0-------0-------|-4/5/7---5---4---|-2--/7---0------||
, . , .
, . , .
, . , .
, . , .
||------------------|-5---------------|-5-------5-------|-----------------|
||--2h3-5---2h3-5---|-----5---5-------|-----5-------5---|-3p2-------------|
||*-----2-------2---|-----2-------2---|-----2-------2---|-----4p2-4-------|
||*-----------------|-----------------|-----------------|-----2-------2---|
||--0-------0-------|-0-------0-------|-0-------0-------|-0---------------|
||------------------|-----------------|-----------------|---------2-------|
, . , .
, . , .
, . , .
, . , .
|-----------------|---------5---4---|-----------------|---------5---4---|
|-5---4-------3---|-----2-----------|-5---4-------3---|-----2-----------|
|-----------------|-----------------|-----------------|-----------------|
|-----2---2---2---|-----2-------2---|-----2---2---2---|-----2-------2---|
|-----------------|-----------------|-----------------|-----------------|
|-2-------2-------|-2-------2-------|-2-------2-------|-2-------2-------|
, . , .
, . , .
, . , .
, . , .
|-----------------|-0---------------|-----0-----------|-----------------|
|-5p4-2h4-5p4-2h4-|-------------3---|-2h3-------------|-----------------|
|-----------------|-----1---2-------|---------2-------|-----------------|
|-----2-------2---|-----2-------0---|-2-----------0---|-----------------|
|-----------------|---------4-------|---------0-------|-4h5/7---0-------|
|-2-------2-------|-2---------------|-----------------|---------7-------|
, . , .
, . , .
, . , .
, . , .
|------------------|------------------|-----------------|---------------|
|-10-------8p7-----|-10-------8p7-----|-----------------|---------------|
|--------------9p7-|--------------9p7-|-----------------|---------------|
|------0-------0---|------0-------0---|-4/5/7---5---4---|-2--/7---4---0-|
|------------------|------------------|-----------------|---------------|
|--0-------0-------|--0-------0-------|-4/5/7---5---4---|-2--/7---4---0-|
, . , .
, . , .
, . , .
, . , .
|------------------|------------------|-----------------|-----------------||
|-10-------8p7-----|-10-------8p7-----|-----------------|-----------------||
|--------------9p7-|--------------9p7-|-----------------|----------------*||

|------0-------0---|------0-------0---|-0---------------|-----h7--h12----*||
|------------------|------------------|-----------------|-h7--------------||
|--0-------0-------|--0-------0-------|-4/5/7---5---4---|-h7------h12-----||

Msica Clasica
Yepes - Romance(TAB)
calidad:
mcla1521
AUTOR: Msica Clasica corregir
ALBUM: desconocido
Enviado por Manuel
Enva el tono de "Yepes - Romance" a tu celular/mvil
Romansa in D minor (Romance anonimo)Narciso Yepes
transcrita por Jose Manuel Lopez Garcia
Primera parte (repetir 2 veces):
Em
e|-7--7--7--7--5--3--3--2--0--0--3--7--12--12--12--12---B|--0--0--0--0--0--0--0--0--0--0--0--0---0---0---0---0--G|---0--0--0--0--0--0--0--0--0--0--0--0---0---0---0---0-D|------------------------------------------------------A|------------------------------------------------------E|-0--------0--------0--------0--------0-----------0----Am
B7
e|-10--8---8--7--5--5--7--8--7--8--7--11--8--7---B|---0--0---5--5--5--5--5--5--7--7--7---7--7--7--G|----0--0---5--5--5--5--5--5--8--8--8---8--8--8-D|-----------------------------------------------A|---------0-------------------------------------E|-0----------------0--------7--------7----------Em
B7
Em/G
Em
e|-7--5--3--3--2--0---2--2--2--2--3--2---0--0--0---0-|
B|--0--0--0--0--0--0---0--0--0--0--0--0---0--0--0----|
G|---0--0--0--0--0--0---2--2--2--2--2--2---0--0--0---|
D|-----------------------------1---------2-----------|
A|--------------------2---------------------2--------|
E|-0--------0----------------------------------3---0-|
Segunda parte una vez

E
Bm
B
e|-4--4--4--4--2--0----------------------9--9--9--9--11--9--B|--0--0--0--0--0--0--5--4--4--4--3--4----7--7--7--7---7--7-G|---1--1--1--1--1--1--2--2--2--2--2--2----8--8--8--8---8--8D|----------------------4--4--4--4--4--4--------------------A|--------------------0--------0----------------------------E|-0--------0----------------------------7--------7----------

A
e|-9--7--7--7--9--11---12--12--12--12--11--10------B|--9--9--9--9--9---9----9---9---9---9---9---9-----G|---9--9--9--9--9---9----9---9---9---9---9---9-----

D|-------------------------------------------------A|-------------------------------------------------E|-0--------0----------0-----------0---------------Bdim
E
e|-9--9--9--9--7--5---4--4--4--5--2---0--0--0---0--|
B|--5--5--5--5--5--5---4--4--4--4--4---0--0--0-----|
G|---6--6--6--6--6--6---2--2--2--2--2---1--1--1----|
D|------------------------------------2------------|
A|-0--------0---------2------------------2---------|
E|------------------------------------------4---0--|
Finaliza con primera parte(solo una vez):
Em
e|-7--7--7--7--5--3--3--2--0--0--3--7--12--12--12--12---B|--0--0--0--0--0--0--0--0--0--0--0--0---0---0---0---0--G|---0--0--0--0--0--0--0--0--0--0--0--0---0---0---0---0-D|------------------------------------------------------A|------------------------------------------------------E|-0--------0--------0--------0--------0-----------0----Am
B7
e|-10--8---8--7--5--5--7--8--7--8--7--11--8--7---B|---0--0---5--5--5--5--5--5--7--7--7---7--7--7--G|----0--0---5--5--5--5--5--5--8--8--8---8--8--8-D|-----------------------------------------------A|---------0-------------------------------------E|-0----------------0--------7--------7----------Em
B7
Em/G
Em
e|-7--5--3--3--2--0---2--2--2--2--3--2---0--0--0---0-|
B|--0--0--0--0--0--0---0--0--0--0--0--0---0--0--0----|
G|---0--0--0--0--0--0---2--2--2--2--2--2---0--0--0---|
D|-----------------------------1---------2-----------|
A|--------------------2---------------------2--------|
E|-0--------0----------------------------------3---0-|
Dudas y comentarios al manuellopez_231192@hotmail.com
aura lee - Misc traditional
---------------------------------------------------------------------------Tabbed by:John
Email:you dont need my email.
Key
-Halfnote= A "b" above the note.
-Wholenote= A "O" above the note.
-all unmar ed notes are quarter notes.

b
b b
b
O
b
b
e|-------|-----|------|---|--------|---|------|-|0-0-0|0-0-0-|0------|
B|--1-0-1|3---3|1-0-0-|1--|--1-0-1-|3-3|1-0-0-|1|-----|------|--3-1-3|
G|0------|--2--|---2--|--0|0-------|-2-|---2--|-|-----|------|-------|
D|-------|-----|------|---|--------|---|------|-|-----|------|-------|
A|-------|-----|------|---|--------|---|------|-|-----|------|-------|
E|-------|-----|------|---|--------|---|------|-|-----|------|-------|

O
b
O
e|0|0-0-1-0|------|---------|-|
B|-|-------|-3---3|-1-0-3-0-|1|
G|-|-------|---2--|---------|-|
D|-|-------|------|---------|-|
A|-|-------|------|---------|-|
E|-|-------|------|---------|-|

E-------------------B----1-0-1---------G-0-----------------D-------------------A-------------------E-------------------E-------------------B--3-------3-------G-----2-------------D-------------------A-------------------E-------------------E-------------------B-1 0----------0G------------2-----D------------------A------------------E------------------E-----------------B----1-------------G-----------------D-----------------A-----------------E-----------------(Repeat 1x)


E-0-0-0----------B-----------------G-----------------D-----------------A-----------------E------------------E----0-0-0-------B-----------------G-----------------D-----------------A-----------------E------------------

E-0-------------B----3-1-3-----G---------------D----------------

A---------------E---------------E 0----------B--------------G--------------D--------------A---------------E---------------E 0-0-1-0---B--------------G--------------D----------------A-----------------E----------------E------------------B 3------3------G-------2---------D-----------------A-----------------E------------------E--------0-------B 1-0---3-----G----------------D----------------A----------------E----------------E----------------B---1-----------G---------------D---------------A---------------E---------------(Repeat whole song once more)


Now there you have it Aura lee hope you li e it if there s anything wrong with it
but I
Really don t thin so e-mail me at D hadd@aol.com