Está en la página 1de 3

HroesdelSilencio

Acstica (TAB)
AUTOR:PedroAndreu,EnriqueBunbury,JoaquinCardiel,J.Valdina
ALBUM:Rarezas
hero0023
G
D
C
Am
Dm

Em

F#m

Esta es la segunda versin de la tablatura. Esta versin incluye


una transformacion completa respecto a la versin anterior. Por favor,
consulte a la seccin de Versines_y_Correcciones en la parte
inferior de la transcripcin para los detalles. Si gusta version
precedente, o si tiene dudas, o necesita ayuda puede mandar
mensaje por correo electronico a rock_sera@yahoo.com
A mi me gusta escribir tablatura de forma estructurada. Hay dos otras
canciones de esta forma si gustan verlos (El Estanque y Apuesta Por
El Rock And Roll).
Siempre pongo mucho esfuerzo en cada trabajo, por favor vote lo que
crees que sea justo y deja tus comentarios a abajo...
----------------------------------------------------------------------Aqu empezamos con la estructura de la tablatura. Cada seccin
constiste de once lneas...
1.
2.
3.
4.
5.
6.
7.
8.
9.
10.

Sec0 ?Esta lnea da nombre a la seccin.


Esta lnea contiene los acordes sincronizados con el tiempo.
0:00| 0:00| 0:00| 0:00| 0:00| Esta lnea contiene el tiempo.
e:----------------------------- cuerda e
B:----------------------------- cuerda B
G:----------------------------- cuerda G
D:----------------------------- cuerda D
A:----------------------------- cuerda A
E:----------------------------- cuerda E
Esta lnea sirve como un separador entre cada seccin.?

___Leyenda_De_Caracteres___________________________________________
= Mantener la nota antes del simbolo sin vibrato.
p Desquita el dedo de la nota antes a la una despus.
h Martilla sobre la nota despus de la "h".
Sec0 Nombre de seccion.
V.0 Numero de version.
- El guion es como se marca la tablatura. Cada guion es igual a
.166666667 de un segundo.
| La barra verticle marca donde empieza el segundo.
[,] el corchete angular derecho se utiliza para significar la
continuacin de la tablatura y el izquierda para significar un
retorno a otra parte de la tablatura. Este simbolo no se cuenta
como parte del tiempo.
X Fin de cancion
Sec1
G
D
G
D
G
D
|0:00 |0:01 |0:02 |0:03 |0:04 |0:05 |0:06 |0:07 |0:08 |0:09 ]
E:3--3---0--2--2--2--2-2---3--3---0--2--2--2--2-2---3--3---0--2--2--2--]
B:3--3---3--3--3--3--3-3---3--3---3--3--3--3--3-3---3--3---3--3--3--3--]
G:0--0---0--0--2--2--2-2---0--0---0--0--2--2--2-2---0--0---0--0--2--2--]
D:0--0---0--0--0--0--0-0---0--0---0--0--0--0--0-0---0--0---0--0--0--0--]
A:2--2---2--2--------------2--2---2--2--------------2--2---2--2--------]
E:3--3---3--0--------------3--3---3--0--------------3--3---3--0--------]
Sec2
G
D
G
D
G
D
|0:10 |0:11 |0:12 |0:13 |0:14 |0:15 |0:16 |0:17 |0:18 |0:19 ]
E:2-2---3--3---0--0--3--2--0-2---3--3-------2h3----0----------3--3----2]
B:3-3---3--3---0--1--3--3--3-3---3--3-------------------------3--3----3]
G:2-2---0--0---0--0--2--2--2-2---0--0-------------------------0--0----2]
D:0-0---0--0---2--2--0--0--0-0---0--0--0-0---------------0--0----------]
A:------2--2---3--3--------------2--2--2-2---------------2--2----------]
E:------3--3---0--0--------------3--3--3-3--2h3-0--0-0---3--3---------0]

Sec3
G
D
G
C
D
G
|0:20 |0:21 |0:22 |0:23 |0:24 |0:25 |0:26 |0:27 |0:28 |0:29 ]
E:h3-2--0-2--------3--3--2h3-2--0-2--3--3--0--0--3--2--0-2--3----3--3--]
B:---3--3-3--------3--3--3---3--3-3--3--3--0--1--3--3--3-3--3----3--3--]
G:---2--2-2--------0--0--2---2--2-2--0--0--0--0--2--2--2-2--0----2--2--]
D:------------0--0-------------------0--0--2--2--0--0--0-0--0--0-0-----]
A:------------2--2-------------------2--2--3--3-------------2--2-0-----]
E:h3-2--0-2---3--3-------0h3-2--0-2--3--3--0--0-------------3--3-2-----]
Sec4
D
G
D
G
D
G
|0:30 |0:31 |0:32 |0:33 |0:34 |0:35 |0:36 |0:37 |0:38 |0:39 ]
E:2h3-2--0h2-2--3----3--3--2h3-2--0h2-2--3----3--3--2h3-2--0h2-2--3--3-]
B:3---3--3---3--3----3--3--3---3--3---3--3----3--3--3---3--3---3--3--3-]
G:2---2--2---2--0----2--2--2---2--2---2--0----2--2--2---2--2---2--0--0-]
D:--------------0--0-0-------------------0--0-0-------------------0--0-]
A:--------------2--2-0-------------------2--2-0-------------------2--2-]
E:0h3-2--0h2-2--3--3-2-----0h3-2--0h2-2--3--3-2-----0h3-2--0h2-2--3--3-]
Sec5
C
D
Am
|0:40 |0:41 |0:42 |0:43 |0:44 |0:45 |0:46 |0:47 |0:48 |0:49 ]
E:-0--0---3--2--0-2--5-5--5-5-5-5-5-8-7-5-5--5-5--5-5-5-5-5-8-7-5-5--5-]
B:-0--1---3--3--3-3--5-5--5-5-5-7-5-5-5-5-8--5-5--5-5-5-7-5-5-5-5-8--5-]
G:-0--0---2--2--2-2--5-5--5-7-5-5-5-5-5-5-5--5-5--5-7-5-5-5-5-5-5-5--5-]
D:-2--2---0--0--0-0--7-7--0-0-0-0-0-0-0-0-0--7-7--0-0-0-0-0-0-0-0-0--7-]
A:-3--3--------------0-0--0-0-0-0-0-0-0-0-0--0-0--0-0-0-0-0-0-0-0-0--0-]
E:-0--0----------------------------------------------------------------]
Sec6
G
C
D
Am
Dm
Em F#m
|0:50 |0:51 |0:52 |0:53 |0:54 |0:55 |0:56 |0:57 |0:58 |0:59 ]
E:5--5-5-5-5-5-8-7-5-5---3--3---0--0--3--2--0-2---5--5=====5====7===9--]
B:5--5-5-5-7-5-5-5-5-8---3--3---0--1--3--3--3-3---5--5=====6====8===10-]
G:5--5-7-5-5-5-5-5-5-5---0--0---0--0--2--2--2-2---5--5=====7====9===11-]
D:7--0-0-0-0-0-0-0-0-0---0--0---2--2--0--0--0-0---7--7=====7====9===11-]
A:0--0-0-0-0-0-0-0-0-0---2--2---3--3--------------7--7=====5====7===9--]
E:-----------------------3--3---0--0--------------5--5=====5====7===9--]
Sec7
Em Am
Dm
Em F#m Em Am
Dm
Em F#m Em G
D
|1:00 |1:01 |1:02 |1:03 |1:04 |1:05 |1:06 |1:07 |1:08 |1:09 ]
E:7---5--5=====5====7===9--7---5--5=====5====7===9--7--3----3--3--2h3-2]
B:8---5--5=====6====8===10-8---5--5=====6====8===10-8--3----3--3--3---3]
G:9---5--5=====7====9===11-9---5--5=====7====9===11-9--0----2--2--2---2]
D:9---7--7=====7====9===11-9---7--7=====7====9===11-9--0--0-0----------]
A:7---7--7=====5====7===9--7---7--7=====5====7===9--7--2--2-0----------]
E:7---5--5=====5====7===9--7---5--5=====5====7===9--7--3--3-2-----0h3-2]
Sec8
G
D
G
D
G
C
|1:10 |1:11 |1:12 |1:13 |1:14 |1:15 |1:16 |1:17 |1:18 |1:19 ]
E:--0h2-2--3----3--3--2h3-2--0h2-2--3----3--3--2h3-2--0h2-2-3--3---0--0]
B:--3---3--3----3--3--3---3--3---3--3----3--3--3---3--3---3-3--3---0--1]
G:--2---2--0----2--2--2---2--2---2--0----2--2--2---2--2---2-0--0---0--0]
D:---------0--0-0-------------------0--0-0------------------0--0---2--2]
A:---------2--2-0-------------------2--2-0------------------2--2---3--3]
E:--0h2-2--3--3-2-----0h3-2--0h2-2--3--3-2-----0h3-2--0h2-2-3--3---0--0]
Sec9
D
|1:20 |1:21 |1:22 |1:23 |1:24 |1:25 |1:26 |1:27 |1:28 |1:29 ]
E:--3--2--0-2---[------------------------------------------------------]
B:--3--3--3-3---[--AQUI SE REPITE DESDE EL PRINCIPIO DE LA CANCION-----]
G:--2--2--2-2---[----------Y RESUME EN EL MINUTO 2:43------------------]
D:--0--0--0-0---[------------------------------------------------------]
A:--------------[---Tablatura por ElOdioNoCesa conozido como-----------]
E:--------------[---------PescadoRabioso en lacuerda-------------------]
^^^^^^^^^^^^^^^^^^^^^^^^^^^^^^^^^^^^^^^^^^^^^^^^^^^^^^^^^^^^^^^^^^^^^^^^
Sec10
G
|2:40 |2:41 |2:42 |2:43 |2:44 |2:45 |2:46 |2:47 |2:48 |2:49 ]
E:-----------------------]--3--3---------------------------------------]

B:-----------------------]--3--3---------------------------------------]
G:-----------------------]--0--0---------------------------------------]
D:-----------------------]--0--0---------------------------------------]
A:-----------------------]--2--2---------------------------------------]
E:-----------------------]--3--3---------------------------------------]
Sec11
|2:50 |2:51 |2:52 |2:53 |2:54 |2:55 |2:56 |2:57 |2:58 |2:59 X
E:---------------------------------------------------------------------X
B:---------------------------------------------------------------------X
G:---------------------------------------------------------------------X
D:---------------------------------------------------------------------X
A:---------------------------------------------------------------------X
E:---------------------------------------------------------------------X
Versines_y_Correcciones
_V.1_____
-Envo
_V.2_____
-Transformacion completa, los acordes y la tablatura fueron
correjidos. Aadado de tiempo, y las secciones fueron
nombradas.
Esteficheroestrabajopropiodesutranscriptoryrepresentasuinterpretacinpersonaldelacancin.Elmaterialcontenidoenestapginaespara
exclusivousoprivado,porloqueseprohibesureproduccinoretransmisin,ascomosuusoparafinescomerciales.