Está en la página 1de 3

intro: parte A

e|----10--------10-------------------------------|
B|----10--------10-------------------------------|
G|-----------------------------------------------|
D|-----------------------------------------------| x4
A|-----------5-----------------------------------|
E|--0------7--------5----------------------------|
Despues de tocar todas las repeticiones de la parte A viene esta parte que se
puede escuchar claramente en la cancion.
Parte B:
e|---------10----------------------|
B|---------10----------------------|
G|---------------------------------|
D|---------------------------------|
A|----5-5--------------------------|
E|--7----------5-------------------|
----------------------------------------------------------|
Coro1:
e|----10--------10-------------------------------|
B|----10--------10-------------------------------|
G|-----------------------------------------------|
D|-----------------------------------------------| x4
A|-----------5-----------------------------------|
E|--0------7--------5----------------------------|
"con el coco rapado................."
e|---------10----------------------|
B|---------10----------------------|
G|---------------------------------|
D|---------------------------------|
A|----5-5--------------------------|
E|--7----------5-------------------|
"desfiando a la suerte...."
e|----10--------10-------------------------------|
B|----10--------10-------------------------------|
G|-----------------------------------------------|
D|-----------------------------------------------| x5
A|-----------5-----------------------------------|
E|--0------7--------5----------------------------|

e|---------10----------------------|
B|---------10----------------------|
G|---------------------------------|
D|---------------------------------|
A|----5-5--------------------------|
E|--7----------5-------------------|
verso 1:
----------------------------------------------------------|
e|----10--------10-------------------------------|
B|----10--------10-------------------------------|
G|-----------------------------------------------|
D|-----------------------------------------------| x5
A|-----------5-----------------------------------|
E|--0------7--------5----------------------------|
e|---------10----------------------|
B|---------10----------------------|
G|---------------------------------|
D|---------------------------------|
A|----5-5--------------------------|
E|--7----------5-------------------|
e|----10--------10-------------------------------|
B|----10--------10-------------------------------|
G|-----------------------------------------------|
D|-----------------------------------------------| x4
A|-----------5-----------------------------------|
E|--0------7--------5----------------------------|
e|---------10----------------------|
B|---------10----------------------|
G|---------------------------------|
D|---------------------------------|
A|----5-5--------------------------|
E|--7----------5-------------------|
e|----10--------10-------------------------------|
B|----10--------10-------------------------------|
G|-----------------------------------------------|
D|-----------------------------------------------| x4
A|-----------5-----------------------------------|
E|--0------7--------5----------------------------|
e|---------10----------------------|
B|---------10----------------------|
G|---------------------------------|
D|---------------------------------|
A|----5-5--------------------------|
E|--7----------5-------------------|
e|----10--------10-------------------------------|
B|----10--------10-------------------------------|
G|-----------------------------------------------|
D|-----------------------------------------------| x4
A|-----------5-----------------------------------|
E|--0------7--------5----------------------------|
e|-------------------------------|
B|-------------------------------|
G|-------------------------------|
D|-------------------------------| en esta parte varia para dar entrada al
A|------5------------------------| coro.
E|--5-7---7-5--------------------|
Coro 2: se toca lo mismo que el primer coro.
Verso 2: lo mismo que el primer verso, solo que aqui empieza a cantar darius.
Coro 3: se toca lo mismo que el primer coro.
Outro:
e|----10--------10-------------------------------|
B|----10--------10-------------------------------|
G|-----------------------------------------------|
D|-----------------------------------------------| x2
A|-----------5-----------------------------------|
E|--0------7--------5----------------------------|

e|----10---------------------------------------|
B|----10---------------------------------------|
G|---------------------------------------------|
D|---------------------------------------------|
A|-----------5---------------------------------|
E|--0------7-----------------------------------|
FIN.

Intereses relacionados