Está en la página 1de 3

2017­6­25

HéroesdelSilencio,laChispaAdecuada:LetrayAcordes

LetrayAcordesdeHéroesdelSilencio:laChispaAdecuada

LetrayAcordesdeHéroesdelSilencio:laChispaAdecuada acordes | evolución | videos | recursos | comunidad |

buscar ArtistaoCanción

LetrasyAcordes

PantallaCompleta

Imprimir

VersiónTexto

AñadirFavorito

OtrasVersiones

MostrarDiagramas

DesfileAutomático

ManipularAcordes

FormatodelTexto

DesfileAutomático ManipularAcordes FormatodelTexto Héroes del Silencio la Chispa Adecuada calidad: hero0353
Héroes del Silencio la Chispa Adecuada calidad: hero0353 AUTOR:PedroAndreu,AlanBoguslavsky,EnriqueBunbury,Joaquin
Héroes del Silencio
la Chispa Adecuada
calidad:
hero0353
AUTOR:PedroAndreu,AlanBoguslavsky,EnriqueBunbury,Joaquin
Cardiel,JanetValdivia
ALBUM:Avalancha(1995)
EnviadoporAndres
PlaytheHeroesdelSilencioQuiz

Song: La Chispa Adecuada Album: Avalancha Artist: Héroes del silencio (Enrique Bunbury · Juan Valdivia · Pedro Andreu · Joaquin Cardiel)

Tono: E A D G B E

|--------------------------------|------------1-----------0-------|

|--------------------------------|----------------------------1---|

|--------------------------------|--------2-----------2-----------|

|--------------------------------|--------------------------------|

|--------------------3---3·--5---|-5------------------------------|

|--------------------------------|--------------------------------|

|------------1-------0-----------|--------------------------------|

|--------1---------------1-------|------------------------1-------|

|--------------------------------|------------3-------------------|

|--------------------------------|--------3-----------3-----------|

|0---------------------------0---|1-------------------------------|

|--------------------------------|--------------------------------|

|--------------------------------|------------1-----------0-------|

|------------1-------------------|----------------------------1---|

|0-------------------------------|--------2-----------2-----------|

|3-------3-----------------------|--------------------------------|

|--------------------3---3·--5---|5-------------------------------|

|--------------------------------|--------------------------------|

|------------0-------0-----------|--------------------------------|

|--------1---------------1-------|------------------------1-------|

|--------2-----------------------|------------3-------------------|

|--------------------------------|--------3-----------3-----------|

|0---------------------------0---|1-------------------------------|

|--------------------------------|--------------------------------|

|--------------------------------|------------1-----------0-------|

|1-----------1-------------------|----------------------------1---|

|3-------------------------------|--------2-----------2-----------|

|--------3-----------------------|--------------------------------|

|--------------------3---3·--5---|5-------------------------------|

|--------------------------------|--------------------------------|

|------------1-------0-----------|--------------------------------|

|--------1---------------1-------|------------------------1-------|

|--------------------------------|------------3-------------------|

|--------------------------------|--------3-----------3-----------|

|0---------------------------0---|1-------------------------------|

|--------------------------------|--------------------------------|

|--------------------------------|------------1-----------0-------|

|------------1-------------------|----------------------------1---|

|0-------------------------------|--------2-----------2-----------|

|3-------3-----------------------|--------------------------------|

|--------------------3---3·--5---|5-------------------------------|

|--------------------------------|--------------------------------|

|------------5-------0-----------|--------------------------------|

|------------5-----------1-------|------------------------1-------|

|--------5-----------------------|------------3-------------------|

|--------------------------------|--------3-----------3-----------|

|0---------------------------0---|1-------------------------------|

|--------------------------------|--------------------------------|

2017­6­25

HéroesdelSilencio,laChispaAdecuada:LetrayAcordes

|1-----------1---0---------------|--------------------------------|

|3-------------------3-----------|--------------------------------|

|------------------------2-------|--------------------------------|

|----------------------------3---|0-------------------------------|

|--------------------------------|--------------------------------| |--------------------------------|--------------------------------| (·) Deslizas hasta la próxima nota

Definimos Acordes

Dm

Am

Bb

C

F

F#m

D

G

A

--1--

--0--

--1--

--3--

--1--

--2--

--2-- --3-- --5--

--3--

--1--

--3--

--5--

--1--

--2--

--3-- --3-- --5--

--2--

--2--

--3--

--5--

--2--

--2--

--2-- --4-- --6--

--0--

--2--

--3--

--5--

--3--

--4--

--0-- --5-- --7--

--X--

--0--

--1--

--3--

--3--

--4--

--X-- --5-- --7--

--X--

--X--

--X--

--X--

--1--

--2--

--X-- --3-- --5--

Dm

Am

Bb

Las palabras fueron avispas

C

Dm

Y las calles como dunas

Bb

Am

Cuando aun te espero llegar

Dm

En un ataud guardo tu tacto

Am

Bb

C

Y una corona

Dm

F

Con tu pelo enmarañado

Am

Queriendo encontrar

Bb

F

Un arcoiris infinito

D - F#m - G - A

Dm

Am

Bb

Mis manos que aun son de hueso

C

Dm

Y tu vientre sabe a pan

Am

Bb

La catedral es tu cuerpo

Dm

Am

Bb

F

Eras verano y mil tormentas

C

Yo el leon Dm

Que sonrie a las paredes Am Que he vuelto a pintar

Bb

F

Del mismo color

D

F#m

G

A

 

No se distinguir entre besos y raices

 

D

F#m

G

A

 

no se distinguir lo complicado de lo simple

D

F#m

G

A

y

ahora estas en mi lista de promesas a olvidar

D

F#m

G

A

todo arde si le aplicas la chispa adecuada

Dm - Am - Bb - C

Dm - Am - Bb - F

Dm - Am - Bb - C

Dm - Am - Bb - F

Dm

Am

Bb

El fuego que era a veces propio

C

la ceniza siempre ajena

Dm

Am

Bb

2017­6­25

HéroesdelSilencio,laChispaAdecuada:LetrayAcordes

Blanca esperma resbalando

F

por la espina dorsal

Dm

Am

Bb

ya somos mas viejos y sinceros

C

y que mas da? Dm si miramos la laguna Am

como llama a la eternidad

F

de la ausencia

Bb

D

F#m

G

A

 

No se distinguir entre besos y raices

 

D

F#m

G

A

 

no se distinguir lo complicado de lo simple

D

F#m

G

A

y

ahora estas en mi lista de promesas a olvidar

D

F#m

G

A

todo arde si le aplicas la chispa adecuada

Dm - Am - Bb - C

Dm - Am - Bb - F

Dm - Am - Bb - C

Dm - Am - Bb - F

···················································

· Esta es la idea de la cancion, el ritmo es Rock ·

· ritmico con solo unas pocas modificaciones es ·

· Decir : Dos rasgueos abajo, Dos rasgueos arriba ·

· Un rasgueo

· letra (Escepto la linea sola) es: Tres rasgueos ·

· Abajo y Un Rasgueo

· sirva demasiado, Cualquier duda, sugerencia, o ·

· Comentario, Soy Matews y pueden hacermelo saber ·

·

···················································

· Mi correo Es Kroth@atame.org

Arriba. Espero que esto les ·

notas que estan sin ·

Abajo. En

las

Larga vida al Hard Rock Y al Heavy Metal

PlaytheHeroesdelSilencioQuiz

Esteficheroestrabajopropiodesutranscriptoryrepresentasuinterpretaciónpersonaldelacanción.Elmaterialcontenidoenestapáginaes

paraexclusivousoprivado,porloqueseprohibesureproducciónoretransmisión,asícomosuusoparafinescomerciales.