Está en la página 1de 7

https://www.songsterr.

com/a/wsa/pescado-rabioso-bajan-tab-s91677t2
intro y verso
G|---------------------------------------------|
D|----------44444444-4-3-22222222--------------|
A|-22222222------------------------5555-44-5---|
E|-------------------------------------------5-|

E|---------------------------------------------|
D|----------44444444-4-3-22222222--------------|
A|-22222222-----------------------5555---------|
E|-------------------------------------222-0-2-|

No quiero mas , verte pasar...


G|------------------------|
D|------------------------|
A|-22222222---------------|
E|---------222222-0-2-4---|(x3)

Solo me quiero sentar a esperar...

G|--------------------------|
D|-5555555-5/4-4444444444---|
A|--------------------------|
E|--------------------------|
Estribillo

G|---------------------------------------------------------------|
D|---------------------------------------------------------------|
A|-777-00-555-----777----99999999-777----2222222-----------------|
E|------------33------33--------------22---------33333333-222222-|

Alejarte de aca...

G|----------------------------|
D|----------------------------|
A|-2222-55--------------------|
E|---------5--555555----------|(x4)

G|----------------|
D|----------------|
A|----------------|
E|-2-3-5----------|(pase del bajo antes del segundo verso)
Bm F#m
La ruta semivacía, como mi vida sin vos,
G D
¿quién hubiera imaginado?
Em Bm
Que llegaría el momento,
C# F#
ese maldito momento, de mirar para un costado.
Bm F#m

Y no verte en mis mañanas, ni sonreír con tu voz,


G D

es sentirme acorralado.

Em Bm

Es por no haber apreciado y yo mismo haber tirado,

C# F#

lo que la vida me dio.


Em Bm
No sigo más, no tengo resto,
C# F#
soy solo esto, barro nomás.
Em Bm
No tengo nada, no lo merezco,
G F# Bm
vos no me tengas piedad.
G; Bm; G; Bm F#m

¿Será sólo mi torpeza, o será mi forma de andar?


G D

no pude seguir tus pasos.


Em Bm

Me fui cayendo a pedazos,

C# F#
sólo quedaron retazos y no los pude juntar.

D A
Si no estas en mis mañanas, si no me río con vos,
G D
si me siento acorralado.
Em Bm
es por no haber apreciado,
C# F#
y yo mismo haber tirado lo que la vida me dio.

Em Bm
No sigo más, no tengo resto,
C# F#
soy solo esto, barro nomás.
Em Bm
No tengo nada, no lo merezco,
G F# Bm
vos no me tengas piedad.
HOMBRE AL AGUA
verso
1---------------------|-----------------------|
2---------------------|---------------5-------|
3--7-5-----5-7------5-|--7-5-----5-7-----7-5--|
4-------7------5-7----|-------7---------------|

1-------------------|--------------------||
2-------------------|--------------------||
3---------4-------5-|----4---2---4---5-4-||
4--5-3-5-----5-3----|------5---5---5-----||

puente
1----------|----------|-----|-----|-----|-----|
2----------|----------|-----|-----|-----|-----|
3-33333333-|-33333333-|-5-5-|-----|-----|---5-|
4----------|----------|-----|-5-5-|-2-2-|-5---|

1----------|----------|----------|----------||
2----------|----------|----------|----------||
3-33333333-|-33333333-|----------|----------||
4----------|----------|-55555555-|-55555555-||

Coro
1------------------------------------|
2------2------5------7-------10------| -(x4)-
3------------------------------------|
4--00-----33-----55------88----------|

cambio

1----------|------------------|--------|
2----------|------------------|--------|
3-22222222-|-00------22222222-|-55-----|
4----------|-----00-----------|-----00-|

1----------|------------------------|
2----------|------------------------|
3----------|-----55--0(dejar sonar)-|
4-22222222-|-00---------------------|