Está en la página 1de 13

G

D
B7
Em
Voy a ser una ronda por tu cumpleaos
C
G
un poema mil veces por ao
Am Em7 C
D
y as me entiendas cuanto te amo
G
D
B7
Em
Silvar como silva un jilguero en el da
C
G
borrar todas tus pesadillas
Am
D
y en tu boca me refugiar
Am
Em7
C
Buscar tierra nueva en el campo
D
B7
Em
le rezar a un santo al atardecer
Am
Em7
C
nadar mar adentro en tu milla
D
B7
Em
y de una costilla te har mi mujer
C
G
han crecido en tu piel girasoles
Em7
E
Am
de tu vientre naci mi motivo
C D G
Am-Em7-C D
sentirme vivo
G
D
B7
Voy a ser el que siempre te amarre el
zapato
C
G
el que cuida de t cada paso
Am
Em7
C
D
el que ponga el sabor a tus labios
G
D
B7

Em

Em

Silvar la cancin del recuerdo en el da


C
G
y en la noche te har manzanilla
Am
D
para verte dormida en mi piel
Am
Em7
C
Buscar tierra nueva en el campo
D
B7
Em
le rezar a un santo al atardecer
Am
Em7
C
nadar mar adentro en tu milla
D
B7
Em
y de una costilla te har mi mujer
C
G
han crecido en tu piel girasoles
Em7
E
Am
de tu vientre naci mi motivo
C B7 Em
sentirme vivo
C D G
sentirme vivo
Final: C-G-C-Em-Am-D-G

==================
INTRO:
==================
G
D
|-------3---2-|2||-----3-------|3||---0-----2---|2||-------------|0||-2--------------|-3---------------

| | = rasgueo

==================
PRIMERA PARTE:
==================
G

B7

Em7

C
|----------------3-------------2----------0-----0---------3--|----------3---3---3---------3---0------3---3-----------1----|------------0-------0-----2-------2---0------0-------0-----0|------------------------0-----------------------------------|---------------------------------------------------3--------|----------3-------------------2-----0-----------------------Voy a hacer...

Am

D
|-3---3---------3---------0-----0--------0-----------3p2-----|-----3-3---3-------1---1-----1--------1---1---------3-----3-|---------0-----------2-----2---------0------0-----2-----2---|------------------------------------------------0-----------|-------------------0---------------3------------------------|------------------------------------------------------------SilG

D
B7
Em7
C
G
|----3-----3-----3-------2-----------0--------------3-------3|------3-----3---------3---0-------3---3----------1---1-----3|--------0-----0-----2-------2---0------0-------0-------0----|------------------0-----------------------------------------|-------------------------------------------2-3--------------|----3-------------------2-----0----------3------------------bar...

Am
D
|---------3---------0-----3---------3p2------2-----2---------|-3---3-------1---1-----1-----3---3----3---3---3-----3-------|---0-----------2-----2---------2--------2-------2-----2-----|-----------------------------0--------------0---------------|-------------0----------------------------------------------|------------------------------------------------------------Busca-

==================
CORO:
==================
Am
Em7
C
D
B7
Em7
|-0-------0---------------3----------------------------0-----|-1-------3-------------1---1---------3--0-----------3---3---|---2-------0---------0-------0-----2------2-------0-------0-|-----2-------0-----2-------------0----------3----------------

|-0-------2-------3------------------------------------------|----------------------------------------2-------0-----------r..
NadaAm

Em7
C
D
B7
Em7
|--0-------0-------------------3------------------------0----|--1-------3-------------1---1---------3--0-----------3---3--|----2-------0---------0---0---------2------2-------0-------0|------2-------0-----2-------------0----------3--------------|--0-------2-------3-----------------------------------------|-----------------------------------------2-------0----------r...
Han
C

Em7

Am
|-----------3-------3-----3-----3----------0---0-----------0-|---------1---1-----3-3-----3----------3-----0-----------1---1
|---0---0-------0-------0-----0-------0----------------2------

|-0--------------------------------------------------2-------|-----3-----------------------------2------2-------0---------|------------------------------------------------------------crecido...
vientre...

De tu

G
D
|---0-|0|---------------0-----0--------2-----2---3-----3--2--|-----|1|-------------1---1-----------3--3---------3--------3|-2---|2|-----------0-------0-------2------2---------0-------|-----|2|---------2---------------0-----------------------0--|-----|0|----------------------------------------------------|------------------------------------------------3-----------Sentirme vi...
...vo

Am

Em7

Dsus

D
|---0-------0-------0-----------3-----3--|2|-

|-------1-------3-----3-------3---3----3-|3||-2-------2-------0---------2-------2----|2||-------------------------0--------------|0||-------0-------2---------------------------|--------------------------------------------

(Lo siguiente es prcticamente lo mismo


con algunos pequeos
cambios)

==================
SEGUNDA PARTE:
==================
G

B7

Em7

C
|-------------3-----3------------------0-----0---------3---3-|-----------3---3---------3-----0-----3--3-----------1-------1
|---------0-------0-----2-----2-----0------0-------0-----0---|---------------------0---------------------------------------

|------------------------------------------------3-----------|-------3-------------------2-----0--------------------------Voy a ser...
G

Am

D
|---------3-----3---------0--------------0-----------3p2-----|-------3---3-----------1---1----------1---1---------3-----3-|-----0-------0-------2-------2-------0------0-----2-----2---|-------------------------------2----------------0-----------|-------------------0---------------3------------------------|---3--------------------------------------------------------SilG

D
B7
Em7
C
G
|----3-----3-----3-------2-----------0--------------3--------|------3-----3---------3---0-------3---3----------1---1------|--------0-----0-----2-------2---0------0-------0-------0-----

|------------------0-----------------------------------------|-------------------------------------------2-3--------------|----3-------------------2-----0----------3-----------------3bar...
Am
D
|-----3-----3---------0-----0---------2------2---3---2---3---|---3---3-------1---1-----1---------3--3---3---3---3---3-----|-0-------0-------2-----2---------2------2-------------------|-------------------------------0------------0---------------|---------------0--------------------------------------------|------------------------------------------------------------Busca==================
CORO:
==================
Am
Em7
C
D
B7
Em7
|-0-------0---------------3---3------------------------0------

|-1-------3-------------1---1---------3--0-----------3---3---|---2-------0---------0-------------2------2-------0-------0-|-----2-------0-----2-------------0----------3---------------|-0-------2-------3------------------------------------------|----------------------------------------2-------0-----------r..
NadaAm
Em7
C
D
B7
Em7
|---------0-------------------3------------------------0-----|-1-------3-------------1---1---------3--0-----------3---3---|---2-------0---------0---0---------2------2-------0-------0-|-----2-------0-----2-------------0----------3---------------|-0-------2-------3------------------------------------------|----------------------------------------2-------0-----------r...
Han
C
Am

Em7

|-----------3-------3-----3-----3--------------------------0-|---------1---1-----3-3-----3-------3----------3---------1---1
|---0---0-------0-------0-----0-------0------0---------2-----|-0------------------------------------0-------------2-------|-----3-----------------------------2------2-------0---------|------------------------------------------------------------crecido...
vientre...

De tu

c
Em7
|---0-|0|--------------------3-----3------2-----2-------0----|-----|1|------------------1---1--------3---3-------1-----3--|-2---|2|----------------0-------0-----2------2-----0-------0|-----|2|--------------2-------------0-----------------------|-----|0|------------3------------------------------3-----2--|------------------------------------------------------------Sentirme vi...
...vo

D
G
|---2-----|3||-----3---|3||---------|0||-0-------|0||---------|2||---------|3|-

=========================================
================
Dedicada con todo mi corazn a mi nia,
Denisse.
=========================================
================
Realizacin por Ral Prez Gonzlez.
Cualquier comentario o correccin, favor
de escribir a
cinico_promo@hotmail.com