Está en la página 1de 35

PROYECCION TU ABANDONO

usen Sta Sol


G:
3T
1c|---x--|-----|----2c|---x--|-----|----3c|---x--|--0--|----4c|---x--|-----|--0-5c|---x--|-----|--0-6c|---x--|-----|----(Intro):
1)-------3-3--5-5--3----------------------------|
2)-3-5-7--7-7--7-7----3-3-----------------------|
3)---------------------5------------------------|
4)------------------------7-4-5-5----4-5-7-4-5--|
5)-------------------------------5--------------|
6)--------------------------------6-------------|
(Esta parte es rapida)
1)----8---5---6-5-6--8-5--6-5-10---6---5----8---5--6------|
2)-10----7---8-7-8-10-7--8-7-10--8---7---10---7---8-------|
3)--------------------------------------------------------|
4)--------------------------------------------------------|
5)--------------------------------------------------------|
6)--------------------------------------------------------|

Me dices que te vas Pues anda vete


Dm
A#
Ya no vuelvas a cruzarte en mi camino
C F

[bis]

Te quise con gran pasin yo no lo niego


G F
Tu fuiste mi adoracin mi nico anhelo
G F
Hoy que te alejas de mi ser muy triste
G F
Mas tarde como olvidar muestro cario
A7 Dm
Cuando te conoc me prometiste
Dm
A#
Juraste quererme siempre eternamente
C F
No comprendo la razn de tu abandono
G F
Puesto a que nunca te di ningn motivo
G F
Ser talvez por causa de mi pobreza
G F
Si es as vete no ms busca riquezas
A7 Dm
Fuga :
No quiero que te cruces en mi camino

[bis]

F
G F
Porque nunca fuiste fiel con mi cario
G F
Yo buscare otra mejor que te comprenda
G F
Que sepa querer y amar sin condiciones.
A7 Dm

ANTOLOGIA VOLVERE
AFINACION: E B G D A E

(Standard)

INTRO
e)-----------9v----------|-------------------------|
B)----9-10-12--12-10-9---|-----9-10-12v--10-9------|
G)-11-----------------9v-|-9-11-------------9-11v--|
D)-----------------------|-------------------------|
A)-----------------------|-------------------------|
E)-----------------------|-------------------------|
e)------------------------|
B)------------------------|
G)--------2-4-2-----------|
D)-----2-4-----4-2--------|
A)--2-4-----------4-2-4---|
E)---------------------2--|
Volver por ti
FA#m
LA
le dije al partir.
MI
Con una cancin escrita para ti.
FA#m
RE
LA
FA#m
esta version es tambien igual que la anterior es la mas
e)------------------|
G)------------------|
B)--------2---------|
D)-----2-4-4-2-2^4--|
A)--2-4-------4-----|
E)------------------|
Y tu al mirarme
MI
se que lloraras
FA#m
pues tu corazn
DO#m
SIm
No me olvidara
FA#
(coro)
Y volver
FA#m
LA
abrasarte muy fuerte a mi pecho y fundirme en tu piel.
LA
MI
Me hundir en tus brazos, en tus tiernos brazos rendido de amor

SIm
y te amare, y te amare.
LA
FA#m

LA

FA#m

(Bis coro)
e)-7/9---7-9---9-10-12-10-9/7-77^10-|-7/9---7-9---9-10-12-9-12-12-17-16-|
B)-9/10--9-10-----------------------|-9/10--9-10------------------------|
G)----------------------------------|-----------------------------------|
D)----------------------------------|-----------------------------------|
A)----------------------------------|-----------------------------------|
E)----------------------------------|-----------------------------------|
e)---------------------------------------------|-------------------|
B)--1414tt^12--12-12/10------------------------|--------10v--------|
G)---------------------11-----9-11-9----9-11v--|----9-11---11/9----|
D)--------------------------12--------12-------|--12-----------11--|
A)---------------------------------------------|-------------------|
E)---------------------------------------------|-------------------|
e)----------------------9---------|
B)------9-12-9-12v--9-12----------|
G)--9-11-------------------11.----|
D)--------------------------------|
A)--------------------------------|
E)--------------------------------|

ANTOLOGIA MENTIRA
A

Bm

Bm

E|---9-7------------||---------------|---------------------||
B|------10-10-10/9--||-------------7-|-------------7-7/9-5-||
G|--9--------------9||-7-6-7-7-7/9---|-7-6-7-7-7/9---------||
D|------------------||---------------|---------------------||
A|------------------||---------------|---------------------||
E|------------------||---------------|---------------------||

Bm

Bm

E|---9-7----------12||-10-9-10-7---|-10-9-10-7----14/16-12--||
B|------10-10-10/9--||-----------7-|-----------7------------||
G|--9---------------||-------------|------------------------||
D|------------------||-------------|------------------------||
A|------------------||-------------|------------------------||
E|------------------||-------------|------------------------||

mentira
FA#m
que me amaste con toda ternura
LA
MI
y que entregaste toda tu inocencia,mentira
RE
LA
MI
Mentira
FA#m
que me dijiste todo en un beso
LA
MI
y que juraste amarme por siempre,mentira
RE
LA
MI
ya veras que todo lo que haces se paga en la vida

LA
MI
y sentiras,como duele el alma cuando se marchita sangra mi agonia
RE
LA
MI
ya veras que todo lo que haces se paga en la vida
LA
MI
y sentiras,como duele el alma cuando se marchita sangra mi agonia
RE
LA
MI
por la herida
FA#m

Escondere
FA#m
mi tristeza al verte ajena
LA
MI
recordando lo que hemos vivido,asi me ire
RE
LA
MI
Y lloraras
FA#m
aunque huyas a lo infinito
LA
MI
Pero un milagor de vida haquedado entre los dos
RE
LA
MI
ya veras que todo lo que haces se paga en la vida
LA
MI
y sentiras,como duele el alma cuando se marchita sangra mi agonia
RE
LA
MI
por la herida
FA#m

JUANES LA CAMISA NEGRA


INTRO
F#m
E|----2--2-|---2---2-|---2--2-|---2---2-|
B|----2--2-|---2---2-|---2--2-|---2---2-|
G|----2--2-|---2---2-|---2--2-|---2---2-|
D|---------|---------|--------|---------|
A|---------|-----4---|--------|-----4---|
E|-2-------|-2-------|-2------|-2-------|

F#m

C#7

F#m

B|---------------------------|---------------------|-------------------|
G|--2-2--1/2----1/2--------4-|-3/4----3/4--------6-|-5/6----5/6--------|
D|--4-4--3/4-4--3/4-4--4/6-6-|-5/6-6--5/6-6--6/7-7-|-6/7-7--6/7-7--9-9-|
A|---------------------------|---------------------|-------------------|

C#7

F#m

E|-----------------|----------------------------|
B|---7------2------|----------------------------|
G|-6-7-6--4-2--1---|-2-2----2-6-6---2-6-6-------|
D|---------------4-|------4-------4-------4-4-6-|
A|-----------------|----------------------------|

C#7

F#m

E|-----------------------------|-----------------------------|

Bm

B|-----------------------------|-----------------------------|
G|-4---4---4-7-7---4-7-7-------|-2---2---2-6-6---2-6-6-------|
D|---6-----------6-------6-6-4-|---4-----------4-------4-4-6-|
A|-----------------------------|-----------------------------|

Bm

C#7

F#m

E|--------------------|---------------|--------------|
B|--------------------|-2-------------|-2------------|
G|-4-4-6-7-6----------|--2---2--------|---2---2------|
D|------------9-7-6-4-|----4---4----4-|-----4---4--4-|
A|--------------------|-----------4---|-----------4--|
E|--------------------|---------------|--------------|

ESTROFA I
F#m
C#7
Tengo la camisa negra
F#m
hoy mi amor est de luto
Bm
hoy tengo en el alma una pena
C#7
F#m
y es por culpa de tu embrujo
F#m
C#7
pues s que tu ya no me quieres
F#m
y eso es lo que mas me hiere
Bm
que tengo la camisa negra
C#7
F#m
y una pena que me duele
F#m
C#7
mal parece que solo me quede
F#m
y fue pura todita tu mentira
Bm
que maldita mala suerte la ma
C#7
F#
que aquel da te encontr
PRECORO
F#

G#m7
A#m7
Por beber del veneno
B
F#
malvolo de tu amor
G#m7
A#m7
yo quede
moribundo
B
F#
y lleno de dolor
G#m7
A#m7
respir de ese humo
B
F#
amargo de tu adis
G#m7
A#m7
B
y desde que tu te fuiste yo solo
CORO
F#m
C#7
Tengo, tengo la camisa negra

F#m
Porque negra tengo el alma
Bm
Yo por ti perd la calma
C#7
F#m
Y casi pierdo hasta mi cama
F#m
C#7
Cam an, cam an, cam an, baby
F#m
te digo con disimulo
Bm
que tengo la camisa negra
C#7
F#m
y debajo tengo el difunto
(se repite el intro)
ESTROFA II
F#m
C#7
Tengo la camisa negra
F#m
ya tu amor no me interesa
Bm
lo que ayer me supo a gloria
C#7
hoy me sabe a pura
F#m
mircoles por la tarde
C#7
y tu que no llegas
F#m
ni siquiera muestras seas
Bm
y yo con la camisa negra
C#7
F#m
y tus maletas en la puerta
F#m
C#7
mal parece que solo me quede
F#m
y fue pura todita tu mentira
Bm
que maldita mala suerte la ma
C#7
F#

que aquel da te encontr


KANSAS POLVO EN EL VIENTO
C
Cmaj7
Cadd3
1e|---------------|---------------|----------------2B|-1-------1-----|-0-------0-----|-3-------3------3G|-----0-------0-|-----0-------0-|-----0-------0--4D|---2-------2---|---2-------2---|---2-------2----5A|-3-----3-------|-3-----3-------|-3-----3--------6E|---------------|---------------|----------------C
Asus2
Asus4
1e|---------------|---------------|----------------2B|-1-------1-----|-0-------0-----|-3-------3-------

3G|-----0-------0-|-----2-------2-|-----2-------2--4D|---2-------2---|---2-------2---|---2-------2----5A|-3-----3-------|-0-----0-------|-0-----0--------6E|---------------|---------------|----------------Am
Asus2
Cadd3
1e|---------------|---------------|----------------2B|-1-------1-----|-0-------0-----|-3-------3------3G|-----2-------2-|-----2-------2-|-----0-------0--4D|---2-------2---|---2-------2---|---2-------2----5A|-0-----0-------|-0-----0-------|-3-----3--------6E|---------------|---------------|----------------C
Cmaj7
Cadd3
1e|---------------|---------------|----------------2B|-1-------1-----|-0-------0-----|-3-------3------3G|-----0-------2-|-----0-------0-|-----0-------0--4D|---2-------2---|---2-------2---|---2-------2----5A|-3-----3-------|-3-----3-------|-3-----3--------6E|---------------|---------------|----------------Am
Asus2
Asus4
1e|---------------|---------------|----------------2B|-1-------1-----|-0-------0-----|-3-------3------3G|-----2-------2-|-----2-------2-|-----2-------2--4D|---2-------2---|---2-------2---|---2-------2----5A|-0-----0-------|-0-----0-------|-0-----0--------6E|---------------|---------------|----------------Am
1e|---------------|
2B|-1-------1-----|
3G|-----2-------2-|
4D|---2-------2---|
5A|-0-----0-------|
6E|---------------|
I close my eyes,
G
Dm7
Am
Only for a moment and the moment's gone.
C
G/B
Am
Am
All my dreams,
G
Dm7
Am
Pass before my eyes a curiosity.
D/F# G
Am Am/G
Dust in the wind,
D/F#
G
Am
All they are is dust in the wind
C
G/bB Am
Same old song,
G
Dm7
Am
Just a drop of water in an endless sea,
C
G/B Am
All we do,
G
Dm7
Am
Crumbles to the ground tho' we refuse to see.
D/F# G
Am Am/G
Dust in the wind,
D/F#
G
Amadd9(2 veces)
All we are is dust in the wiiiiii----G/A(2 veces) F(#11)/A(2 veces) F6(#11)/A F(#11)/A
iiiiiiiiiiiiiiind, ooooooooooooooh ho hooooooooooooo.
(Aqu empieza la parte instrumental)
Amadd9 G/A
F(#11)/A
F6(#11)/A

F(#11)/A

6E---------------|-----------|-----------|-----------|-----|------------------5A-------3-2-3---|-----------|-3-2-0-2-3-|-----------|-2-0-|------------------4D-2---0-------0-|-----------|-----------|-3---------|-----|---------------30-3G---------------|-0-2-------|-----------|---0-2-----|-----|-------2-0-2-0----2B---------------|-----0-1-3-|-----------|-------0-1-|-----|-0-1-0------------1e---------------|-----------|-----------|-----------|-----|------------------Amadd9 G/A
F(#11)/A
F6(#11)/A F(#11)/A
*
6E---------------|-----------|-----------|-----------|-----|---------------------5A-------3-2-3---|-----------|-3-2-0-2-3-|-----------|-2-0-|---------------------4D-2---0-------0-|-----------|-----------|-3---------|-----|---------------------3G---------------|-0-2-------|-----------|---0-2-----|-----|-------2-------------2B---------------|-----0-1-3-|-----------|-------0-1-|-----|-0-1-0---0-1-3-------1e---------------|-----------|-----------|-----------|-----|---------------0-5--3* Todo esto se acompaa con la intro completa desde que esta el asterisco
6E---------------------------------|
5A---------------------------------|
4D---------------------------------|
3G-------------------------------2-|
2B-----------------3---3-1-3-1-0---|
1e-5-3-1-3-1-0-1-0---0-------------|
6E-------------------------------------------------------------------|
5A-------------------------------------------------------------------|
4D-------------------------------------------------------------------|
3G--2-----2--------------------------------------------------------2-|
2B----0-1---0-1-3-0-1-3---1-3------------------------3---3-1-3-1-0---|
1e----------------------0-----0-1----5-3-1-3-1-0-1-0---0-------------|
C
G/B
Am
Am
(Now) Don't ha-ang o-on,
G
Dm7
Am
Nothing lasts forever but the earth and sky.
C
G/b Am
It slips a-awa-a-ay,
G
Dm7
Am
And all your money won't another minute buy.
D/F# G
Am Am/G
Dust in the wind,
D/F#
G
Am
Am/G
All we are is dust in the wind. (all we are is dust in the wind)
D/F# G
Am
Am/G
Dust in the wind, (everything is dust in the wind)
D/F#
G
Am
Everything is dust in the wind

Mantente tocando Am cuando cantas wind y mantenlo hasta el final, pero debes de hacerlo
con el juego de notas que aprendiste en la intro, sin cambiar de acorde Am, la variacin se
mantiene hasta finalizar la cancin:

Am Asus2 Asus4
Asus2 Asus4 Am
Asus4 Am Asus2
Am Asus2 Asus4

Am
Asus2
Asus4
Am

Los acordes que utilizamos son:

LEO DAN TE HE PROMETIDO


E)---------------------------------------------------------B)--5/7-5-2--5/7-5-2--5-7-9-9-7--7-5-3--7-5-3--5-7-9-9-----G)---------------------------------------------------------D)---------------------------------------------------------A)---------------------------------------------------------e)---------------------------------------------------------E)------------------------------------------------------------B)--5/7-5-2--5/7-5-2--5-7-9-9-7--7-5-3-3--3-3-5-5-----0--3--0-5
G)-------------------------------------------------4-------4--D)------------------------------------------------------------A)------------------------------------------------------------e)------------------------------------------------------------A
F#m
TE HE PROMETIDO QUE TE DE OLVIDAR
D
E7
CUANTO HAZ QUERIDO YO TE SUPE DAR
A
F#m
SOLO Y HERIDO ASI ME DEJAS
D
E7
A
SABIENDO QUE MAANA IRAS CON OTRO AL ALTAR
A
F#m
LLORARAS, LLORARAS POR TU CAPRICHO
D
E7
SI YO SE QUE ES AMI A QUIEN QUEREIS
A
F#m
NO PODRAS SER FELIZ CON NINGUN OTRO
D
E7
A
E7
A
E7
A
PUES CONMIGO CONOSISTE EL AMOR, SI EL AMOR, SI EL AMOR.
(verso)
E)---------------------------------------------------------B)--5/7-5-2--5/7-5-2--5-7-9-9-7--7-5-3--7-5-3--5-7-9-9-----G)---------------------------------------------------------D)---------------------------------------------------------A)---------------------------------------------------------e)---------------------------------------------------------E)------------------------------------------------------------B)--5/7-5-2--5/7-5-2--5-7-9-9-7--7-5-3-3--3-3-5-5-----0--3--0-5
G)-------------------------------------------------4-------4---

D)------------------------------------------------------------A)------------------------------------------------------------e)-------------------------------------------------------------

(VERSO)SI VOLVIERAS LOS OJOS ATRAS HASTA AQUEL


MOMENTO EN QUE NOS CONOCIMOS ESTOY TAN SEGURO QUE
ENCONTRARIAS A TU VERDADERO AMOR COMO YO LO ENCONTRE
EN TI
A
F#m
TE HE PROMETIDO QUE TE DE OLVIDAR
D
E7
CUANTO HAZ QUERIDO YO TE SUPE DAR
A
F#m
SOLO Y HERIDO ASI ME DEJAS
D
E7
A
SABIENDO QUE MAANA IRAS CON OTRO AL ALTAR
A
F#m
LLORARAS, LLORARAS POR TU CAPRICHO
D
E7
SI YO SE QUE ES AMI A QUIEN QUEREIS
A
F#m
NO PODRAS SER FELIZ CON NINGUN OTRO
D
E7
A
E7
A
E7
A
PUES CONMIGO CONOSISTE EL AMOR, SI EL AMOR, SI EL AMOR

TITULO:
Enamorado de un Angel
GRUPO O ARTISTA: Tremolo (Tacna-Peru)
TRANSCRITO POR:
Juan Pablo Condezo Diaz [jianqechcan@hotmail.com]
FECHA:
Jueves, 23 de Septiembre del 2004
PROCEDENCIA:
Huancavelica - Peru
ACORDES USADOS EN ESTA ROLAZA
===============================
A
\x=====/
||||||
||ooo|
||||||
||||||
A
e|-0-b|-2-g|-2-D|-2-A|-0-E|----

A5
\===xxx/
\===xxx/
o|||||V
o|||||VII
||||||
|oo|||
||||||

E
\======/
|||o||
|oo|||
||||||
||||||

F#m
\======/
||||||
oooooo
||||||
|oo|||

E
e|-0-b|-0-g|-1-D|-2-A|-2-E|-0--

F#m
e|-2-b|-2-g|-2-D|-4-A|-4-E|-2--

E5
\x==xxx/

D
e|-2-b|-3-g|-2-D|-4-A|-5-E|----

E5
\o===xx/

|o||||
||||||
||oo||
||||||

D
D
\x=====/
\======/
||||||
||||||
|ooooo |||o|o
||||o|
||||o|
||o|||
||||||
|o||||

e|-2-b|-3-g|-2-D|-0-A|-0-E|----

F#5
\===xxx/

D5
\x===xx/

C#5
\x===xx/

||||||VII

||||||

|o||||V

|o||||IV

|oo|||
||||||
||||||

o|||||
||||||
|oo|||

||||||
||oo||
||||||

||||||
||oo||
||||||

B5

||||||
|oo|||
||||||

A5
e|-X-b|-X-g|-X-D|-7-A|-7-E|-5--

E5
e|-X-b|-X-g|-9-D|-9-A|-7-E|-X--

E5

F#5

e|-X-b|-X-g|-X-D|-2-A|-2-E|-0--

AFINACION: E B G D A E

e|-X-b|-X-g|-X-D|-4-A|-4-E|-2--

D5
e|-X-b|-X-g|-7-D|-7-A|-5-E|-X--

C#5
e|-X-b|-X-g|-6-D|-6-A|-4-E|-X--

(Normal)

Explicacion de la TABLATURA
h=
hammer on
p=
pull-off
/=
slide up
\=
slide down
^=
bend full
B=
bend half
br^= bendn Full
V~= vibrato
T= Tapping

INTRO: (arpegios con PALM MUTTING)


A

F#m

e|-------------------------------------------------------------------b|---------3p2-------------------------------2----------------3------g|-----2-------2------------2p1----------2-----2---2------2-----2---2D|---2---2-------2------2-------2----------4-----4------4---4-----4--A|-0------------------2---2-------2----4--------------5--------------E|------------------0----------------2--------------------------------

F#m

e|-------------------------------------------------------------------b|---------3p2-------------------------------2----------------3------g|-----2-------2------------2p1----------2-----2---2------2-----2---2D|---2---2-------2------2-------2----------4-----4------4---4-----4--A|-0------------------2---2-------2----4--------------5--------------E|------------------0----------------2--------------------------------

PRIMER SOLO (0:20)


===========
A

F#m

e|--------10-9v~~--10-12-10h12br^-10-9-9v~~------------b|----12--------------------------------------12-10v~~-g|-----------------------------------------------------D|-----------------------------------------------------A|-----------------------------------------------------E|------------------------------------------------------

D
e|-----10-10h9------10-10h9-------12-----10-9----b|---12-----------12-----------12----------------g|-----------------------------------------------D|-----------------------------------------------A|-----------------------------------------------E|------------------------------------------------

F#m

e|--------10-9~~---10-12-10h12br^-10--9-9~~-----------b|------------------------------------------12--10~~--g|----------------------------------------------------D|----------------------------------------------------A|----------------------------------------------------E|-----------------------------------------------------

B5
e|-X-b|-X-g|-X-D|-9-A|-9-E|-7--

e|-----10-10h9-----10-10h9-----10-10h9-----10--9v~~~-b|---12----------12----------12----------12----------g|---------------------------------------------------D|---------------------------------------------------A|---------------------------------------------------E|----------------------------------------------------

(0:39)
A

E
Es tan difcil querer que a quien quiero
F#m
D
Solo se hace realidad en tus sueos
A
E
Es increble como aparece
F#m
D
Dentro en mi mente cuando no estoy durmiendo
A5
E5
F#5
D5 E5-D5-C#5-B5
Siempre apareces como un ngel entre mis sueos
A5
E5
F#5
D5 E5-D5-C#5-B5
Siempre apareces como un ngel entre mis sueos
(1:18)
A
E
Ella sabe como consolarme
F#m
D
cuando me siento mal y estoy desesperado
A
E
yo la invito a una cita mas tarde
F#m
D
y me quedo pensando hasta la noche
A5
E5
F#5
D5 E5-D5-C#5-B5
Siempre apareces como un ngel entre mis sueos
A5
E5
F#5
D5 E5-D5-C#5-B5
Bella como el Arte simple como el aire que respiro
A5
E5
F#5
D5 E5-D5-C#5-B5
Siempre apareces como un ngel entre mis sueos
A5
E5
F#5
D5
Bella como el Arte simple como el aire que respiro
SEGUNDO SOLO
============

(2:16)

A5

E5

F#5

e|-----------------------7h9br^--7---7------------12----------------------b|------------10------10----------10--10br^--12br^--12br^---12--10-11-10--g|---\9--9h11----9h11-----------------------------------------------------D|------------------------------------------------------------------------A|------------------------------------------------------------------------E|-------------------------------------------------------------------------

D5

A5

e|------12-10-------------------------------------b|---10-------12-10--12-12br-13br-13br-12---10~~~-g|------------------------------------------------D|------------------------------------------------A|------------------------------------------------E|-------------------------------------------------

E5

F#5

e|--------------------------------9-10-9-10-10/12br~~---10-9-10-9v~~\b|-----10--12--10-12br^--12-10-12------------------------------------g|---11--------------------------------------------------------------D|--------------------------------------------------------------------

D5

A|-------------------------------------------------------------------E|--------------------------------------------------------------------

(2:34)
A

E
Al despertar con ansias espero
F#m
D5
Otra noche mas para poder mirarlaaaaaaaa
A5
E5
F#5
D5 E5-D5-C#5-B5
Siempre apareces como un ngel entre mis sueo
A5
E5
F#5
D5 E5-D5-C#5-B5
Bella como el Arte simple como el aire que respiro
A5
E5
F#5
D5
Siempre apareces como un ngel entre mis sueos
A5
E5
F#5
D5
Bella como el Arte simple como el aire que respiro
ULTIMO SOLO (3:23)
===========
A5

E5

F#5

D5

A5

e|-----------------------------------------------------------------------b|-------7-9-10v~~---9-7-------------------------------------------------g|------7------------------7br^~----6-7-6br^~----------------------------D|--------------------------------9-----------9-7-6br^~~~--6-7-9--7br^~~-A|-----------------------------------------------------------------------E|------------------------------------------------------------------------

E5

F#5

D5

e|----------------------------------------------------b|----------------------------------------------------g|----------------------------------------------------D|---8/9~--10/11v~--10/11-12--11h12v~~~~--12h11v~~~~--A|----------------------------------------------------E|-----------------------------------------------------

(3:42)
A

F#m

e|------------------------9v~~--------7-9-10-9v~~~-----7--------b|------7-9-10v~~------9-7--------------------------------10-9v-g|----7---------------------------------------------------------D|--------------------------------------------------------------A|--------------------------------------------------------------E|---------------------------------------------------------------

F#m

D5

e|----------7-------7--9--7v~~~----7-7-9-10--9br^h10br^~~~~h9v~~~--7s5v~~\-b|-----9-10---10--10-------------------------------------------------------g|-------------------------------------------------------------------------D|-------------------------------------------------------------------------A|-------------------------------------------------------------------------E|--------------------------------------------------------------------------

(4:02) TAPPING
A5

e|-12-0h10--12-0h9--12-0h7--12-0h9--12-0h5---12-0h7--12-0h4--12-0h5--12-0h7--12-0h5-b|--T--------T-------T-------T-------T--------T-------T-------T-------T-------T-----g|----------------------------------------------------------------------------------D|----------------------------------------------------------------------------------A|----------------------------------------------------------------------------------E|-----------------------------------------------------------------------------------

F#m

e|-12-0h7--12-0h9--12-0h10--12-0h9--12-0h7---12-0h9--12-0h5--12-0h7--12-0h4--12-0h5v~
b|--T-------T-------T--------T-------T--------T-------T-------T-------T-------T------

g|----------------------------------------------------------------------------------D|----------------------------------------------------------------------------------A|----------------------------------------------------------------------------------E|-----------------------------------------------------------------------------------

(4:11)
A5

E5

F#5

e|--------10--9~~--10-12-10h12br~--10------9-9v~~-----------b|---/12-------------------------------------------12--10~~-g|----------------------------------------------------------D|----------------------------------------------------------A|----------------------------------------------------------E|-----------------------------------------------------------

D5

A5

E5

A5

e-------10--9------10---9---------10h12---10-9----15br~--17v~~~---b---12-----------12------------12---------------------------------g-----------------------------------------------------------------D|----------------------------------------------------------------A|----------------------------------------------------------------E|-----------------------------------------------------------------

MDO TE QUISE OLVIDAR


C | F | Am | A# | G
C
F
Estuve con otra queriendo olvidarte
C
F
y me fue imposible de mi mente arrancarte
C
F
Era tan hermosa, perfecta, buen amante
C
F
que no dude un minuto con ella enredarme
Dm
G
Era obsesionante ver su cuerpo sobre el mo
A#
G
respirando el mismo aire que no llenaba este vaco,
G
sin final
C
F
Te quise olvidar
Dm
tus besos borrar
A#
G
C
estuve con otra y me qued, la soledad
C
F
Y yo la hice ma
Dm
quien ya debera
A#
que absurdo y que tonto pensar
G
C
que con otro cuerpo te iba a olvidar
C | F | Am | A# | G
C
F
Aun no se porque te fuiste de mi lado
C
F

aun lloro tu partida como un nio abandonado


C
F
Aun sigo noches fras, buscndote en mi cuarto
C
F
Y no encuentro ms que un alma hecha pedazos
Dm
G
Mi cuerpo te grita que regreses otra vez
A#
G
quiero abrigarme en tu piel y contigo amanecer,
C
de nuevo
C
F
Te quise olvidar
Dm
tus besos borrar
A#
G
C
estuve con otra y me qued, la soledad
C
F
Y yo la hice ma
Dm
quien ya debera
A#
que absurdo y que tonto pensar
G
F
que con otro cuerpo te iba a olvidar
F
Em
Mientras me entregaba, en ti yo pensaba
Dm
G
D
y es que yo te llevo clavada en mi ser...
A
D
A
te llevo, te llevo en mi ser
D
G
Te quise olvidar
Em
tus besos borrar
C
A
D
estuve con otra y me qued, la soledad
D
G
Y yo la hice ma
Em
quien ya debera
C
que absurdo y que tonto pensar
A
que con otro cuerpo te iba a olvidar
D
Pero yo te quise
G
Pero yo te quise
Em
Yo te quise
Em | C | A
Olvidar
D
Pero yo te quise
G
Pero yo te quise
Em
Yo te quise
C
A
G
Olvidar Y tus besos borrar

D
Te quise olvidar

MDO SIN TI
2/4
Intro:
G D Em Bm C G Am D
G

D
Em
En mi alma hay un lugar amor
Bm
C
clido y sensual como el mar azul
G
Am
esperando estoy a que vengas tu
D
para mostrrtelo.
G

D
Em
En mi habitacin cuando tu no estas
Bm
C
el tiempo se va lentamente y yo
G
Am
tengo que luchar con la adversidad
D
para sobrevivir.
Em
Bm
Dime que hice mal
C
G
D/F#(DE PASO)
para merecer tu desprecio cario
Em
Bm
Tanta soledad
C
G
D/F#(DE PASO)
me tiene al borde de un profundo abismo
Am
D
G...
me quiero morir.
Coro:
G
D
Em
Sin ti amor
Bm
C
G
todo es un desastre me siento vaco
Am
D
la vida no es vida ya nada es lo mismo
G
D Em
Sin ti
Bm
C
G
salir a la calle no tiene sentido
Am
D
hay tantos recuerdos que le dan muy duro
G
D Em Bm C G Am D
a mi corazn.
G

D
Em
En el corazn yo conservo aun
Bm
C
el poema aquel que me diste tu
G
Am
tu primera vez esa timidez
D
mientras te amaba yo.

Em
Bm
Dime que hice mal
C
G
D/F#(DE PASO)
para merecer tu desprecio cario
Em
Bm
Tanta soledad
C
G
D/F#(DE PASO)
me tiene al borde de un profundo abismo
Am
D
G...
me quiero morir.
Coro:
G
D
Em
Sin ti amor
Bm
C
G
todo es un desastre me siento vaco
Am
D
la vida no es vida ya nada es lo mismo
G
D Em
Sin ti
Bm
C
G
salir a la calle no tiene sentido
Am
D
hay tantos recuerdos que le dan muy duro
G
D Em Bm C G Am D (D#)
a mi corazn.
Coro: (MEDIO TONO ARRIBA)
G#
D#
Fm
Amor
Cm
C#
G#
todo es un desastre me siento vaco
A#m
D#
la vida no es vida ya nada es lo mismo
G#
D#
Fm
Sin ti amor
Cm
C#
G#
salir a la calle no tiene sentido
A#m
D#
hay tantos recuerdos que le dan muy duro
G# D# Fm Cm C# G# A#m D#
a mi corazn.
(TERMINA COMO EL INTRO)

REIK SABES
******Nota: Con capo en el 1er traste******
*INTRO*
e|-----------|-----------|------0----|-----------|
B|------2----|-----------|--------3--|--2--0-----|
G|--------4--|------2-0--|----2------|--------2--|
D|----4------|----0------|--0--------|----2------|
A|--2--------|-----------|-----------|--0--------|
E|-----------|--3--------|-----------|-----------|

e|-----------|-----------|-----------|-----------|
B|------2----|-----------|------0----|-----2-----|
G|--------4--|------2-0--|--------0--|-----2-----|
D|----4------|----0------|----2------|-----2-----|
A|--2--------|-----------|--0--------|-----0-----|
E|-----------|--3--------|-----------|-----------|

D
Sabes

G
ms
D
que estar entre tus brazos
G
y huir de todo el mal
Bm
Em
D
que a todo he renunciado
A
A
por estar junto a t...
no pido nada

D
G
Sabes no dejo de pensar
D
que estoy enamorado
G
te quiero confesar
Bm
Em
D
que soy solo un esclavo
A
que no sabe vivir sin tii
*CORO*
Bm
G
D
Cuando llegaste t
A
Bm
te metiste en mi ser
G
D
encendiste la luz
A
Em
me llenaste de f
G
tanto tiempo busqu
Em
pero al fin te encontr
D
A
tan perfecta como te imagin nou nooooo
Bm
G
D
Como aguja en un pajar
A
Bm
te busqu sin cesar
G
D
como huella en el mar
A
Em
tan difcil de hallar
G
tanto tiempo busqu
Em
pero al fin te encontr

D
A
tan perfectaaaa como te imagine
*INTRO*
e|------------|-----------|------0----|------------|
B|-------2----|-----------|--------3--|---2---0----|
G|---------4--|------2-0--|----2------|---------2--|
D|-----4------|----0------|--0--------|-----2------|
A|---2--------|-----------|-----------|---0--------|
E|------------|--3--------|-----------|------------|
e|------------|-----------|-----------|------------|
B|-------2----|-----------|------0----|---2--------|
G|---------4--|------2-0--|--------0--|---2--------|
D|-----4------|----0------|----2------|---2--------|
A|---2--------|-----------|--0--------|---0--------|
E|------------|--3--------|-----------|------------|
D
G
sabes te quiero confesar
D
que te encuentro irresistible
G
no dejo de pensar
Bm
Em
D
que hara lo imposible
A
por quedarme cerca de ti
*CORO*
Bm
G
D
Cuando llegaste t
A
Bm
te metiste en mi ser
G
D
encendiste la luz
A
Em
me llenaste de f
G
tanto tiempo busqu
Em
pero al fin te encontr
D
A
tan perfecta como te imagin nou nooooo
Bm
G
D
Como aguja en un pajar
A
Bm
te busqu sin cesar
G
D
como huella en el mar
A
Em
tan difcil de hallar
G
tanto tiempo busqu
Em
pero al fin te encontr

D
A
tan perfectaaaa como te imagin
e|------------|-----------|-----------|------------|
B|-------2----|-----------|------0----|---2--------|
G|---------4--|------2-0--|--------0--|---2--------|
D|-----4------|----0------|----2------|---2--------|
A|---2--------|-----------|--0--------|---0--------|
E|------------|--3--------|-----------|------------|
D

Sabes no pido nada ms que estar entre tuuus brazos

PROYECCION AQUE VOLVISTE MUJER


Am
Dm
A que volviste mujer
G7
C
si todo ya est perdido
Am
Dm
a que volviste a buscar
G7
C
amor que por ti no siento
Am
Dm
toma el camino que ayer
E7
Am
te trajo a m y luego mrchate
Am
Dm
La flor de mi corazn
E7
Am
se marchit y no te quiero ya.

Am
Dm
Todo mi amor te entregu
G7
C
con la ternura de un nio
Am
Dm
el orgullo y tu desdn
G7
C
mataron mis ilusiones
Am
Dm
que ms yo podra hacer
E7
Am
irme de t, sintiendo un gran dolor
Am
Dm
si ya muri aquel amor
E7
Am
la luz del sol, alumbra ms sin t.

SAVIA ANDINA A LOS BOSQUES


REm

FA

DO

e|---1-0-1-0-1-3-3/5-|---8-7-10-8-7-8-----------|

B|-3-----------------|10--------------8---------|
G|-------------------|--------------------------|
D|-------------------|--------------------------|
A|-------------------|--------------------------|
E|-------------------|--------------------------|

DO

FA

DO

REm

x2

e|---3-2-3-0-1-3-3/5-|8-8-7-5-------------------|
B|-5-----------------|--------8-7-8-5-----------|
G|-------------------|----------------7---------|
D|-------------------|--------------------------|
A|-------------------|--------------------------|
E|-------------------|--------------------------|

SIb

FA x2

e|-10-10-9-10-9-10-8-7----|
B|---------------------10-|
G|------------------------|
D|------------------------|
A|------------------------|
E|------------------------|

DO

FA

DO

REm

e|-3-3-2-3-0-1-3-3/5-8-8-7-5-------------------|
B|---------------------------8-7-8-5-----------|
G|-----------------------------------7---------|
D|---------------------------------------------|
A|---------------------------------------------|
E|---------------------------------------------|

REm
FA
A los bosques yo me interno
DO
A Echar mis penas llorando
FA
Y los bosques me contestan
DO
REm
Lo que has hecho estas pagando
DO
FA
Y los bosques me contestan
DO
REm
Lo que has hecho estas pagando
REm
FA
Ay como quieres que tan pronto
DO
olvide el mal que me has hecho
FA
de rato en rato me toco el pecho
DO
REm
la herida me duele mas y mas
DO
FA
de rato en rato me toco el pecho
DO
REm
la herida me duele mas y mas.
SIb
FA
En la distancia te quiero ms
SIb
FA
En la distancia te adoro ms
DO
FA
Perdonara cualquier ofensa
DO
REm
Pero olvidarte jams jams
DO
FA
Perdonara cualquier ofensa
DO
REm
Pero olvidarte jams jams.

x2

(Repetir introduccin)
(Repetir todo)
DO
REm

Pero olvidarte jams jams.


El ritmo negro del corazn
El ritmo negro
Saya Boliviana saya
Saya de los yungas
Eh..eh..eh..eh..eh..eh..
e
b
g
d
a
e

-8-8-8-7-5-3--1-0---0-3
-------------3-------------------------------------------------------------------------------------------------

e
b
g
d
a
e

-8-8-8-7-5-3--1-0---0-3
-------------3-------------------------------------------------------------------------------------------------

e
b
g
d
a
e

--0-3-0-0-------1-3------3-1--------------------------------------------------------------------------------------------------

El ritmo negro del corazn


El ritmo negro
Saya Boliviana saya
Saya de los yungas
Sabor moreno.....
Como mueven las caderas
Al ritmo negro
Se siente fuego en el sangre
Fuego en los morenos
Eh..eh..eh..eh..eh..
C
F
De los yungas de Bolivia
G7
C
Viene la saya
C
F
Msica afro-boliviana
G7
C
Afro boliviana
C7
F
Msica afro-boliviana
G7
C
Afro boliviana
Sabor moreno
C
F
Vamos a bailar la saya
G7
C
El ritmo negro
C
F
Que no se acabe la fiesta

G7
C
De los morenos
C7
F
Que no se acabe la fiesta
G7
C
De los morenos
Eh..eh..eh..eh..eh..
C - F - G7 - C
Vamos a bailar la saya boliviana
C - F - G7 - C
Vamos a bailar la saya boliviana
C - F - G7 - C
El ritmo negro del corazn
El ritmo negro
Saya Boliviana saya
Saya de los yungas
Eh..eh..eh..eh..eh..eh..
El ritmo negro del corazn
El ritmo negro
Saya Boliviana saya
Saya de los yungas
Sabor moreno.....
Como mueven las caderas
Al ritmo negro
Se siente fuego en el sangre
Fuego en los morenos
Eh..eh..eh..eh..eh..
C
F
De los yungas de Bolivia
G7
C
Viene la saya
C
F
Msica afro-boliviana
G7
C
Afro boliviana
C7
F
Msica afro-boliviana
G7
C
Afro boliviana
Sabor moreno
C
F
Vamos a bailar la saya
G7
C
El ritmo negro
C
F
Que no se acabe la fiesta
G7
C
De los morenos
C7
F
Que no se acabe la fiesta
G7
C
De los morenos

Eh..eh..eh..eh..eh..
C - F - G7 - C
Vamos a bailar la saya boliviana
C - F - G7 - C
Vamos a bailar la saya boliviana
C - F - G7 - C
El ritmo negro del corazn
El ritmo negro

DUO AYACUCHO
PALOMA TORCAZA
intro .LAm,MI (arpejiado)
DO
MI
DO
MI
DO
PALOMA TORCAZA TORCAZA PALOMA
DUEA MIA

LAm
QUE

ME

DO
ABRAS ECHO

DUEA MIA

LAm
QUE

ME

MI
ABRAS

DO
MI
DO
TU ERES MI VIDA TU

MI
DO
ERES MI ILUSIN

DUEA MIA

LAm
QUE

ME

DO
ABRAS

DUEA MIA

LAm
QUE

ME

MI
ABRAS

DO
SIN

TI

LAm
ECHO

MI
DO
NADA TENGO SIN

ASTA

LAm
CUANDO ME

ASTA

LAm
MI
CUANDO TENDRE QUE

ECHO
LAm
ECHO
MI
TI NADA

DO
BALGO

DO
PADECER

ARAS

LAm
SUFRIR

MI
DO
DO
MI
DO
SI YA NADA BALGO SI YA NADA TENGO
SERA

MEJOR

LAm
QUE

YO

ME

SERA

LAm
MEJOR

MI
QUE

YO

ME

LAm
DO
CHAYIAWICHAITI
SUCUYTASUWAWA

DO
BAYA
LAm
MUERA

YAALLAWICHAITI
POR

DIOS

MI
TE LO

LAm
JURO

LAm
DO
CHAYIAWICHAITI

YAALLAWICHAITI
MI

LAm

SUCUYTASUWAWA POR DIOS TE LO JURO

LOS APUS NO VUELVO A AMAR


me bi perdido sin saber que yo moria
RE
SOL
sin quqere
RE
ya no cofiaba en otro ser porque perdi
RE
SOL
ala que ame
RE
Tu me enseaste a compartir
FA#
SIm
Mi vida entera te ofresi
FA#
SIm
Tanta ternura te entrege
FA#
SIm
Solo por ti vivo y recibi
SOL
RE
Porque el cario suele cambiar
FA#
SIm
Si sabe amar tambien olvidar
SOL
RE
No existe el tiempo para borrar
FA#
SIm
Tu inmenso tu dulce mirar
SOL
RE
Quien va olvidar no puedo mas
FA#
SIm
No vuelvo amaaaaaaaaaaar

SOL RE

ANTOLOGIA NIA
RE
LA
1)-14/17-17-14--14^10-10-12-12^14--|-14^12-12-12--14-14^12-11-12--|
2)---------------------------------|------------------------------|
3)---------------------------------|------------------------------|
4)---------------------------------|------------------------------|
5)---------------------------------|------------------------------|
6)-----------------------------(1)-|--------------------------(2)-|
SOL

FA#

SI

RE

1)-12^10-10-10-12--12^10-9-10-10^9--|------9---|------9-10-12-12/14---|
2)----------------------------------|----11-12-|-10-12----------------|
3)----------------------------------|--11------|----------------------|
4)----------------------------------|----------|----------------------|
5)----------------------------------|----------|----------------------|
6)------------------------------(3)-|------(4)-|------------------(5)-|
SIm
1)---12------12--14--10--9--10^9------|
2)-----12--12--------------------12---|
3)-------12---------------------------|
4)------------------------------------|
5)------------------------------------|
6)--------------------------------(6)-|
1)--9-------12---------4---7---7---7---7---7--7.-7-7-7---|
2)---11--11---12--12----6-6-7-7-7-7-7-7-7-7--------------|
3)-----10-------12-------6---7---7---7---7----7.-7-7-7---|
4)-------------------------------------------------------|
5)-------------------------------------------------------|
6)---------------------------------------------------(7)-|
1)-----------------|
2)------2-3-5-5/7--|
3)--2-4------------|
4)-----------------|
5)-----------------|
6)-----------------|..........(*)
INTRO (1)(2)(3)(4)(5)(6)(5)(6)(7)
RE
Lejos de ti solo estoy
RE
Luchando por nuestro amor
SOL
FA#
SIm
Para enfrentarle a la vida....nia........(*)
RE
MIm
RE
FA# -SIm
Aaaayyy para enfrentarle a la vida...(5)(6)
---(7)---

RE
No pienses que me olvide
RE
De las promesas de amor
SOL
FA#
SIm
Que nos hicimos un da...nia........(*)
RE
MIm
RE
FA# -SIm
Aaaayyy que nos hicimos un da...(5)(6)
.......(7).........
RE
LA
1)-----------------------2/5-5-7^5-4-5---|
2)---7/10-10-7-7/5-5-7-------------------|
3)----------------7----------------------|
4)---------------------------------------|
5)---------------------------------------|
6)---------------------------------------|
SIm

1)--12^10--10-10-12-12^10-9--10-9-----|
2)--12-----12-12-12-12----11-12-10----|
3)--12--------------------------------|
4)------------------------------------|
5)------------------------------------|
6)------------------------------------|
....Sigue --(4)(5)(6)(5)(6)(7)-RE
Como quisiera jugar
LA
Con tus cabellos y estar
SOL
FA#
SIm
En tus recuerdos hoy da...nia........(*)
RE
MIm
RE
FA# -SIm
Aaaayyy En tus recuerdos hoy da...(5)(6)
---(7)---

RE
No pienses que me olvide
LA
De las promesas de amor
SOL
FA#
SIm
Que nos hicimos un da...nia........(*)
RE
MIm
RE
FA# -SIm
Aaaayyy que nos hicimos un da...(5)(6)
---(7)---

MIm
RE
FA#
SIm
1)--12--12--14--14--9---9-----|
2)----14------15------11--12--|
3)--14------14------11----11--|
4)----------------------------|
5)----------------------------|
6)----------------------------|

ANTOLOGIA

PALOMITA CUCULI

Intro
Percusin y zampoa
F#m
A
Bm
C#m
Bm
e)-2-2-4-5-4-5-7-9--9/12-12-9-9-7-7-5-7---7-9-9/12-12-12-14-12-12-9-7B)--2-------------------------------------7-9------------------------G)-2-2-4-6-4-5-7-9--9/12-12-9-9-7-7-5-7---7-9-9/12-12-12-14-12-12-9-7D)--2----------------------------------------------------------------F#m
E
F#m
E
F#m
e)--7-7-7-9-7-5-4-2-----2-5-4---5-4-2---2-5-7---9-7-5--|
B)-----------------------------------------------------|
G)--7-7-7-9-7-5-4-2-----2-5-4---5-4-2---2-5-7---9-7-5--|
F#m
e)--------------------14-|
B)-----------------------|
G)-------6-4-6-4---------|
D)-4-6-7---------7-4-----|

F#m
Cuando el amor se termina , A.-7-5-4-2-0-A
Bm
el corazn se marchita
C#m
Bm
uno no sabe si creer tus dudas se hacen realidad
F#m
E
F#m
te encuentras solo al despertar hay hayayayay
F#m
e)--------------------2-|
B)----------------------|
G)-------6-4-6-4--------|
D)-4-6-7---------7-4----|
F#m
anoche no pude dormir
A.-7-5-4-2-0-A
en mis sueos estabas tu
C#m
Bm
y ese perfume se impregno en el silencio del dolor
F#m
E
F#m
y no lo pude sentir mas
hay hayayayay
F#m
b)----------------------------5-7-|
g)--------------4-6-4-6.-7-6-7----|
D)-------6-7-6-7------------------|
A)--9-7-9-------------------------|
D
A
E
F#m
hayayay palomita cucul
D
A
E
F#m
E
hayayay ojitos de capuliiiii
Solo: (Rpido)
A

Bm

e.------------9-10-12--14-14-12-12-10-10-9-12-------9-|
B.-----9-10-12-------------------------------9-10-12--|
G.-9-11-----------------------------------------------|

F#m

e.--------9---------------------------------9---------|
B.-9-10-12-12-10-9-12----------9-10-12-10-12-12-------|
G.-------------------9-------11-----------------------|

C#m

e.------------9-10-12--14-14-12-12--------16----------|
B.-----9-10-12--------------------15-15-14--14--------|
G.-9-11-----------------------------------------------|

Bm

F#m

e.-14-16-17-19-17-16-17-----17-17-----17-14-------12--|
B.---------------------15-15-----15-15----------12----|
G.--------------------------------------------13------|

Acompaamiento de quena
E-A-Bm-C#m-Bm-F#m-E-F#m-E-F#m
F#m
e)--------------------2-|
B)----------------------|
G)-------6-4-6-4--------|
D)-4-6-7---------7-4----|
F#m

Oigo muchos pasos all A.-7-5-4-2-0-A


Bm
creo que viene el interior
C#m
Bm
ahora comprendo que perd lo que en la vida mas ame
F#m
E
F#m
nunca hay dos lagrimas igual hayayayay
F#m
b)----------------------------5-7-|
g)--------------4-6-4-6.-7-6-7----|
D)-------6-7-6-7------------------|
A)--9-7-9-------------------------|
D
A E
F#m
hayayay palomita cucul
D
A E
F#m
hayayay ojitos de capuli

F#m-F#m

A
Bm
D
C#m
canta conmigo guitarra llora conmigo cucul
A
Bm
F#m
aurea tu alas para mi y dime por donde andaras

E
F#m
hay mi amor.

F#m
b)----------------------------5-7-|
g)--------------4-6-4-6.-7-6-7----|
D)-------6-7-6-7------------------|
A)--9-7-9-------------------------|
D
A
E
F#m
hayayay palomita cuculi
D
A
E
F#m
hayayay ojitos de capuliiii

ROBERTO CARLOS EL GATO QUE ESTA TRISTE Y AZUL


INTRODUCIN:
e|-----2----2-----2----2-----0----0-|
b|----3----3-----3----3-----3----3--|
g|---2----2-----2----2-----3----3---|
d|-4----------4----------3----------| repetir varias veces

A
D
A
Cuando era un chiquillo, que alegra,
Em
D
jugando a la guerra noche y da.
D7
G
Saltando una verja, verte a ti,
Gm
D
A7
D
y as en tus ojos algo nuevo descubrir.
D
A
Las rosas decan que eras ma
Em
D
y un gato me haca compaa.
D7
G
Gm
Desde que me dejaste yo no s por qu
D
A
D
la ventana es ms grande sin tu amor.
F#m
Am

El gato que est en nuestro cielo


B
B7
Em
no va a volver a casa si no ests.
Em7
G
No sabes mi amor, que noche bella...
A7
D
Presiento que tu ests en esa estrella.
F#m
Bm
El gato que est triste y azul
G
A7
D
nunca se olvida que fuiste ma.
F#m
Bm
Mas s que sabr de mi sufrir,
G
A
D
porque en mis ojos
una lgrima hay.
Eb Bb Eb
Eb
Bb
Querida, querida, vida ma.
Fm
Eb
Reflejo de luna que rea.
Eb7
Ab
Abm
Si amar es errado, culpa ma, te am.
Eb
Bb
Eb
En el fondo, que es la vida?, no lo s.
Gm
Bbm
El gato que est en nuestro cielo
C
C7
Fm
no va a volver a casa si no ests.
Fm7
Bb
No sabes mi amor, que noche bella
Bb7
Eb
Presiento que tu ests en esa estrella
SOLm
DOm
El gato que est triste y azul nunca
ACORDES: Em7+ 0 2 1 0 0 0
Fm7+ 1 3 2 1 1 1
Versin de Los Potes de Santiago de Compostela

OV7 SI TAL VEZ


Intro: SOL RE LAm DO 2x
SOL
RE
Si tal vez
LAm
RE
Podras comprender
SOL
RE
Que no s
LAm
RE
Cmo expresarme bien
MIm
SIm
Si tal vez
DO
SIm
Pudiera hacerte ver
DO
SIm
Que no hay otra mujer
LAm
RE
Mejor que t para m;

SOL
RE
Si tal vez
LAm
RE
Me haras muy feliz
SOL RE
Si tal vez
LAm
RE
me lo podras decir
MIm
SIm
Si tal vez
DO
SIm
Detalle a detalle
DO
SIm
Podras conquistarme
LAm
RE
Sera tu--ya.
SOL
MIm
Te quiero tanto, tanto, tanto, tanto, tanto
SIm
DO
RE
Cada da un poco ms.
SOL
MIm
Te quiero tanto, tanto, tanto, tanto, tanto
SIm
DO
RE
Para m no hay nada igual, no lo hay
LAm
RE
Te quiero tanto, tanto, tanto, tanto, amor
DO
SOL
SIm
LAm
DO
SOL
SIm
LAm DO
Que ya no puedo m---aa---aas, ya no puedo m---aa---aas.
(Se repite la misma secuencia de arriba.)
SOL
RE
SI tal vez
Lam
RE
El mundo aprender
SOL
RE
Con nuestro amor
Lam
RE
Lo bello que es amar
SOL
RE
Y tal vez
Lam
RE
Lo vuelva a repetir
SOL
RE
Pareja por pareja
Lam
RE
El mundo entero al fin.
SOL
MIm
Te quiero tanto, tanto, tanto, tanto, tanto
SIm
DO
RE
Cada da un poco ms.
SOL
MIm
Te quiero tanto, tanto, tanto, tanto, tanto
SIm
DO
RE
Para m no hay nada igual, no lo hay
LAm
RE
Te quiero tanto, tanto, tanto, tanto, amor
DO
SOL
SIm
LAm
DO
SOL
SIm
LAm
Que ya no puedo m---aa---aas, ya no puedo m---aa---aas.
DO
SOL
SIm
LAm
Ya no puedo ma---aa---aas. Ya no puedo ms.
DO
SOL

Ya no puedo ms.

TITULO:
Pienso en Ti
GRUPO O ARTISTA: Tremolo (Tacna-Peru)
TRANSCRITO POR:
Juan Pablo Condezo Diaz [jianqechcan@hotmail.com]
FECHA:
Viernes, 1 de Octubre del 2004
PROCEDENCIA:
Huancavelica - Peru
ACORDES USALDOS EN ESTA ROLA
==============================
CM7
\======/
||||||
||o|||
oo||||
||||||

Bm
\=====x/
||||||
|oooo|
||||o|
||oo||

D
\=====x/
||||||
|||o||
||||o|
||||||

Em
\======/
||||||
|oo|||
||||||
||||||

Bm
e|-x-b|-3-g|-4-D|-4-A|-2-E|-x--

D
e|-x-b|-3-g|-2-D|-0-A|-0-E|----

Em
e|-0-b|-0-g|-0-D|-2-A|-2-E|-0--

CM7
e|-x-b|-0-g|-0-D|-2-A|-3-E|-3-Afinacion:

Eb Bb Gb Db Ab Eb

Explicacion de la TABLATURA
( )=
h=
p=
/=
\=
^=
B=
br^=
V ~ =

(1/2 tono menos)


gost note
hammer on
pull-off
slide up
slide down
bend
bend half
bendn release
vibrato

PIENSO EN TI
(Tremolo)
INTRO:
CM7
D
Bm
Em
e|----------------------------------------------------0--------|
b|----0------0------3------3------3------3------0-------0------|
g|------0------0-------2-----2------4------4------0--0----0----|
D|--------2------2--0----0-----0------4------4------2----------|
A|----3---------------------------2----------------------------|
E|----------------------------------------------0-----------0--|
|
[0:02]
e|-------------------------------------------------------------|
b|--------------------------------------7h9--7-----------------|
g|-------------------------7s9-7--------7----7---7-9-----------|
D|-------------------------7s9-7--------------------------7h9--|
A|-------------------------------------------------------------|
E|-------------------------------------------------------------|
CM7
|(0:07)

Bm

Em
|

e|-------------------------------------------------------------|
b|-----------------------------------7h8-(7)p5--3-/5~----------|
g|-------------------------------------------------------------|
D|--5-7-5-7-5-7br----------------------------------------------|
A|-------------------------------------------------------------|
E|-------------------------------------------------------------|
(0:13)
CM7

D
Bm
Em
Te conoc viernes, el sbado solo pensaba en ti
CM7
D
Bm
Em
Y la luna llena me advirti de enamorarse as,
CM7
D
Bm
Em
Pero el tabaco, me dijo vive el momento s
CM7
D
Bm
Em
Mas no falto el trago, para desearme buena suerte.
CM7
D
Bm
Em
Y voy directo a conquistarte aunque se que puedes despreciarme
CM7
D
Bm
Em
Es como entrar en un rodeo, sabiendo que tu eres ciego
Coro:
CM7
D
Bm
Em
Pienso en ti, cada vez que no ests aqu
CM7
D
Bm
Em
Lloro as, cada vez que me embriago as

CM7
D
Bm
Em
e|-----------------------------------------------3~------------|
b|----3-5-3---------------3h5p3/2-3~---------3-5---------------|
g|-------------------------------------------------------------|
D|-------------------------------------------------------------|
A|-------------------------------------------------------------|
E|(1:10)-------------------------------------------------------|
(1:17)
CM7
D
Bm
Em
Sin lastimarte quisiera acercarme un poco mas
CM7
D
Bm
Em
Y con tu permiso, bordear con mi mano tu figura
CM7
D
Bm
Em
Robarte un beso, y sellar con eso nuestro amor,
CM7
D
Bm
Em
No se que siento, que no quiero que todo sea un sueo
CM7
D
Bm
Em
Y voy directo a conquistarte aunque se que puedes despreciarme
CM7
D
Bm
Em
Es como entrar en un rodeo, sabiendo que tu eres ciego
Coro:
CM7
D
Bm
Em
Pienso en ti, cada vez que no ests aqu
CM7
D
Bm
Em
Lloro as, cada vez que me embriago as
CM7
D
Bm
Em
Pieeeenso en ti, cada vez que no ests aqu
CM7
D
Bm
Em
Llooooro as, cada vez que me embriago as

FINAL:
CM7
D
Bm
Em
e|-------------------------------------------------------------|
b|-/5-/8-------10b8s12h10--------10/8----/7--3/-5--------------|
g|-------------------------------------------------------------|
D|--------------------------------------------------5h7-5------|
A|-------------------------------12/10---/9--5/-7--------------|
E|(2:27)-------------------------------------------------------|
CM7
D
Bm
Em
e|------------------------------10br^---------7h8p7-7----------|
b|-------------------8-10-8---------------------------10--8----|
g|-----------4-4h7-4-------------------------------------------|
D|-------5-7---------------------------------------------------|
A|----5h7------------------------------------------------------|
E|(2:35)-------------------------------------------------------|
CM7
D
Bm
Em
e|-------------------------------------------------------------|
b|-8-11b-11b-11br-8-10---------8h10p8-8--7-8-7-8/10-8-7-8-7----|
g|----------------------------------------------------------9--|
D|-------------------------------------------------------------|
A|-------------------------------------------------------------|
E|(2:42)-------------------------------------------------------|
CM7
D
Bm
Em
e|-------------------------------------------------------------|
b|--------10/8---7---------------------------------------------|
g|---------------------7-9-7v----------7--9h7------------------|
D|-------------------9------------------------9-7--7b----------|
A|--------12/10--9-----------------------------------10b-------|
E|(2:49)-------------------------------------------------------|
CM7
D
Bm
Em
e|----------------------------------10-7-8-7-------------------|
b|------8-10p8---------8-10p8-------10-7-8-7-10-8-10br---------|
g|-------------------------------------------------------------|
D|-------------------------------------------------------------|
A|-------------------------------------------------------------|
E|(2:56)-------------------------------------------------------|
CM7
D
Bm
Em
e|-------------------------------------------------------------|
b|------8v~-10p8-----8-10-8h10p8-----8h7p8---------------------|
g|-----------------------------------------7h9-9~--------------|
D|-------------------------------------------------------------|
A|-------------------------------------------------------------|
E|(3:03)------------------------------------------------(3:10)-|
fin

MILDER ORE KUYAYKI NIA


INTRO:
SOL2 - RE - MIm
SOL2 - RE - MIm ----BIS (acompaado con quena)

SOL2 - RE - MIm
SOL2 - RE - MIm ----BIS (acompaado con guitarra)
CANTE:
SOL2
Rosita yo te quiero mucho
SOL2
RE
MIm
Por ti / mi amor sufriendo / estoy. --------BIS
DO2
SOL2
Nunca, nunca, nunca me / dejes
SOL2
RE
MIm
Eres la / rosa que yo / so.
DO2
SOL2
Nunca, nunca, nunca me / dejes
SOL2
RE
MIm
Eres la / rosa que yo / espere.
INTER:
SOL2 - RE - MIm
SOL2 - RE - MIm
DO2
En la distancia yo te extrao mucho
SOL2
RE
MIm
Mi / corazn sufriendo / esta----------BIS
DO2
SOL2
Nunca, nunca, nunca me / dejes
SOL2
RE
MIm
Eres la / rosa que yo / so.
DO2
SOL2
Nunca, nunca, nunca me / dejes
SOL2
RE
MIm
Eres la / rosa que yo / espere.
SOL2
RE
En primavera te / conoc
RE
MIm
Kuyayki nia ven hacia / mi
SOL2
RE
Eres la rosa de mi / jardn
RE
MIm
Kuyayki pasa ven hacia / mi------BIS
SOL2 - RE SOL2 - RE ************
SOL2 - RE SOL2 - RE ***********
SOL2 - RE SOL2 - RE -

MIm
MIm
SOL2
MIm
MIm
MIm