Está en la página 1de 4

Flaca

Andrés Calamaro
Composición de: Andrés Calamaro

Tono: G

[Intro] G B7/F# Em C
G D G D

E|------------------------------------------|
B|-3-0------0-3-4-0-----0-4-5-0-------0-3-1-|
G|------2-0---------2-0---------2-0-2-------|
D|------------------------------------------|
A|------------------------------------------|
E|------------------------------------------|

E|------------------------------------------|
B|-0-3-0-------0-3--0-----------------------|
G|-------2-0-2--------2-0-------------------|
D|------------------------------------------|
A|------------------------------------------|
E|------------------------------------------|

[Refrão]

G B7
Flaca, no me claves
Em C
Tus puñales, por la espalda
G D
Tan profundo, no me duelen
G D
No me hacen mal

G B7
Lejos, en el centro
Em C
De la tierra, las raíces
G D
Del amor, donde estaban
G D
Quedaran
[Primeira Parte]

G
Entre no me olvides
B7
Me deje nuestros abriles
Em
Olvidados
C
En el fondo del placard
G
Del cuarto de invitados
D
Eran tiempos dorados
G D
Un pasado mejor

G
Aunque casi me equivoco
B7
Y te digo poco a poco
Em
No me mientas
C
No me digas la verdad
G
No te quedes callada
D
No levantes la voz
G D
Ni me pidas perdón
G
Aunque casi te confieso
B7
Que también he sido un perro
Em
Compañero
C
Un perro ideal
G
Que aprendió a ladrar
D
Y a volver al hogar
G D
Para poder comer

[Refrão]

G B7
Flaca, no me claves
Em C
Tus puñales, por la espalda
G D
Tan profundo, no me duelen
G D
No me hacen mal

G B7
Lejos, en el centro
Em C
De la tierra, las raíces
G D
Del amor, donde estaban
G D
Quedaran

[Solo] G B7/F# Em C
G D G D
G B7/F# Em C
G D G D
G B7/F# Em C
G D G D
G B7/F# Em C
G D G D
G B7/F# Em C
G D G D
B7 B7/F# C D Em
1 1
2 3 4 2 1 2 1 2
3 3
1 2 3
4

También podría gustarte