Está en la página 1de 2

=====================================================================

| TABLATURAS Y ACORDES DE M�SICA EN ESPA�OL |


+------------------------ www.lacuerda.net -------------------------+
| ARTISTA: la Renga |
| CANCION: 2+2=3 |
| AUTOR: Gustavo F. N�poli |
| ALBUM: Insorportablemente Vivo (Array) |
+------------------------------------------------------TAB-reng0014-+
| TRANS: Pedro |
| CORREO: vazquezdanile@msn.com |
=====================================================================

INTRO
*****

1[----------10----12--9---------
9---------------------------------------------------------5------]
2[-10-----------------9----9-------9-9-----9-12-10-10-----------5-----
5-------------------8------]
3[-11-10-11----11----10-10-9-10---10-9-10-10-11-11----12-11-9-7-7---
6---------------------6------]
4[-12----------------11-------------------11-12-12--------------6-6---------7-9-7-
3-4-5-6-5------]
5[--------------------------------------------------------------7-------8-
9---------------7------]
6[--------------------------------------------------------------------------------
1-2-3-4-5------]

PARTE CANTADA
*************

1[----------------------10----------2---------2-------2-2---------2-------
3--------------------2----------------------------------5--5--------
5---------------
2[----------------------10----------2-----2-----------3---2-3-------------3-3---5--
3--6--------3------------5----4-5--------------5----5----7---7---8---------
3[----------------------11----------3-----2-3---------4-------4-----------4-4---4--
4--4--------2------------7----6-7--------------6------6--6-----6-6---------
4[----------------------12----------4-----4-----------4---------4---------5-5---3--
3--3--------0------------6----5-6--------------7---------5-------5--------- Repite
5[----------------------12----------4-----------------2-------------------
5---------------------------------7----6-7--------------
7---------------------------
6[----------------------10----------2-------------------------------------
3-------------------------------------------------------
5---------------------------
si dos mas dos fuera tres este mundo no seria como es la cuenta no
daria lo que tengo en tal caso el cuatro seria rengo si dos
as dos....

la guitarra sigue haciendo casi lo mismo todas las estrofas y el punteo de saxo
tambien

ULTIMA PARTE
************

SOL RE
y que distinta seria la vida
FA# Sim
si a aca suma le haria un sustraendo
SOL RE
y que dichosa seria nuestra suerte
FA# Sim
que los cornudos serian unicornios

1[-----3-----------------------------------------3------5------10-------
3------------------------------------------------
2[-----3--3--5--3--6-----------------------------3------5------10-------
3------------------5-6---------------------------
3[-----4--4--4--4--4---------11--9---8-----------4------6------11-------
4------------------4-4---------11-------9---8----
4[-----5--3--3--3--3---------12-10---9-----------5------7------12-------
5------------------3-3---------12------10---9----
5[-----5---------------------12-10---9-----------5------7------12-------
5------------------------------12------10---9----
6[-----3---------------------10--8---7-----------3------5------10-------
3------------------------------10-------8---7----
y a mi me faltaria un dia me..e..nos en el alta en el manicomio a mi... me
faltaria.... un dia meeee...ee..nos

SOL LA RE
para el alta en el manicomio

SOL- LA- RE

FINAL
*****

1[--11---10--]
2[--13---12--]
3[--12---11--]
4[--11---10--]
5[--13---12--]
6[--11---10--]

DECIME SI NO SUENA IGUAL!! AGUANTE LA RENGA!!

========================= www.lacuerda.net ==========================


Este fichero es trabajo propio de su transcriptor y representa su
interpretaci�n personal de la canci�n. El material contenido en
esta p�gina es para exclusivo uso privado, por lo que se prohibe su
reproducci�n o retransmisi�n, as� como su uso para fines comerciales.
========================= www.lacuerda.net ==========================
1107141670