Está en la página 1de 3

5/11/2020 CLAVADO EN UN BAR, Maná: Acordes

 
×
Clavado en un Bar
Maná
Fher Gonzalez
Sueños Liquidos [1997]

INTRO:A D A D E E X3

A D F#

VERSOS:

A E
Aqui me tiene bien clavado

F#m
Son tantas las penas en un bar

D
Brindando por tu amor.

A E
Aqui me tiene abandonado

F#m
Bebiendo tequila pa'olvidar

D
Y sacudirme hacia el dolor

PRECORO:

A E F#m
Donde estas bendita?

A D E
Donde te has metido?

C#m D
Abre un poco el corazon

C#m D
Deja amarte corazon

C#m D E
Ven y sacame de este bar.
CORO:

A
Estoy clavado,

C#m
Estoy herido,

F#m D
Estoy ahogado en un bar

A
Desesperado,

C#m
En el olvido amor,

F#m D
Estoy ahogado en un bar

INTRO:A D A D E E X2

A E
Se que te gustan demasiados

F#m
Que te pretende cantidad

D
Pero eso no es felicidad

A E
Y mi amor nunca se raja

F#m
Y mi amor nunca jamas te va a fallar

https://acordes.lacuerda.net/mana/clavado_en_un_bar-3.shtml 1/3
5/11/2020 CLAVADO EN UN BAR, Maná: Acordes

D
Nunca jamas

PRECORO:

A E F#m
Donde estas bendita?

A D E
Donde te has metido?

C#m D
Abre un poco el corazon

C#m D
Deja amarte corazon

C#m D E
Ven y sacame de este bar.
CORO:

A
Estoy clavado,

C#m
Estoy herido,

F#m D
Estoy ahogado en un bar

A
Desesperado,

C#m
En el olvido amor,

F#m D
Estoy ahogado en un bar

A
Muy desesperado,

C#m
Muy en el olvido,

F#m D
Estoy ahogado en un bar.

A-Bm D
Dejate querer amor

A
Quiero ser tu todo

C#m
Y tu corazon

A-Bm D
Ven a rescatarme amor

A
Yo quiero ser tu sol

F#m
Yo quiero ser tu mar.

ahora el solo:
SOLO.
1.-------------------------------------|
2.---------13----15-16-------13--15-16-|
3.---11/13----13--------11-13------13--|
4.-------------------------------------|
5.-------------------------------------|
6.-------------------------------------|

1.--12-13---15----13/12/10-------------|
2.-------------------------------------|
3.--------------------------12-14p12-12|
4.-------------------------------------|
5.-------------------------------------|
6.-------------------------------------|
1.--------------------------------------|
2.--------------------------------------|
3.--12-14p12---12-----12-14-12--12~-----|
4.--------------------------------------|
5.--------------------------------------|
6.--------------------------------------|

https://acordes.lacuerda.net/mana/clavado_en_un_bar-3.shtml 2/3
5/11/2020 CLAVADO EN UN BAR, Maná: Acordes
1.-----47--8--6--4---------------------|
2.--------------------------------------|
3.--------------------------------------|
4.--------------------------------------|
5.--------------------------------------|
6.--------------------------------------|

A E
Aqui me tienen embriagado

F#m
Llorando de rabia en un bar

D
Brindando por su amor

A E
Aqui me tiene bien borracho

F#m
Bebiendo tequila pa'olvidar todo

D
No es justo amor

A D A D E E A D A D E E

Este chero es trabajo propio de su transcriptor y representa su interpretación personal de la canción. El material contenido en esta página es
para exclusivo uso privado, por lo que se prohibe su reproducción o retransmisión, así como su uso para nes comerciales.

https://acordes.lacuerda.net/mana/clavado_en_un_bar-3.shtml 3/3

También podría gustarte