Está en la página 1de 9

TONALIDAD: Am

LOS RUNAS DIFICULTAD: 4/5


RASGUEO: Carnaval
Sirena CAPO: Sin capo

-----------------------------------------------------------------------------------
-----------------------------------------------------------------------------------
-----------------------------------------------------------------------------------
-----------------------------------------------------------------------------------
---------------------------------2h3-0-0-----------------------------------2h3-0-0-
-0-3h5-5-3--0-0-3h5-5-3--0-3-3-3-----------0-3h5-5-3--0-0-3h5-5-3--0-3-3-3---------

-----------------------------------------------------------------------------------
---------------------------------0h1---------------------------------------0h1-----
---0h2-2-0------0h2-2-0----0-0-0-----2-2-----0h2-2-0------0h2-2-0----0-0-0-----2-2-
-2----------2-2----------2-----------------2----------2-2----------2---------------
-----------------------------------------------------------------------------------
-----------------------------------------------------------------------------------

-----3h5-5-------------------------------------------------------------------------
-5-5------------3h5-3--1h3-3-3-3--1-1-3/5-5----------------------------------------
------------5-5--------------------------------------------------------------------
-----------------------------------------------------------------------------------
-----------------------------------------------------------------------------------
-----------------------------------------------------------------------------------

-----3h5-5-------------------------------------------------------------------------
-5-5------------3h5-3--1h3-3-3-3--1-3-1h3------------------------------------------
------------5-5---------------------------2----------------------------------------
-----------------------------------------------------------------------------------
-----------------------------------------------------------------------------------
-----------------------------------------------------------------------------------

-----3h5-5-------------------------------------------------------------------------
-5-5------------3h5-3--1h3-3-3-3--1-1-3/5-5----------------------------------------
------------5-5--------------------------------------------------------------------
-----------------------------------------------------------------------------------
-----------------------------------------------------------------------------------
-----------------------------------------------------------------------------------

-----3h5-5-------------------------------------------------------------------------
-5-5------------3h5-3--1h3-3-3-3--1-3-1h3------------------------------------------
------------5-5--------------------------------------------------------------------
-----------------------------------------------------------------------------------
-----------------------------------------------------------------------------------
-----------------------------------------------------------------------------------

-5-3-0-2---------------------------------------------------------------------------
---------3-1-3-1-----0h1-----------------------------------------------------------
-----------------2-0-----2-2-2-2---------------------------------------------------
-----------------------------------------------------------------------------------
-----------------------------------------------------------------------------------
-----------------------------------------------------------------------------------
Am C
Que pasará, que pasará
G Am
Algo pasa en mi corazón

C
Que sientes tú, que siento yo
G Am
En el aire se siente amor

-5---7-8-5-------------------------------------------------------------------------
---5-------------------------------------------------------------------------------
-----------------------------------------------------------------------------------
-----------------------------------------------------------------------------------
-----------------------------------------------------------------------------------
-----------------------------------------------------------------------------------

Am C
Que pasará, que pasará
G Am
Algo pasa en mi corazón

C
Que sientes tú, que siento yo
G Am
En el aire se siente amor

-------------0-3h5-----------------------------------------------------------------
---0-1-3-1-3-----------------------------------------------------------------------
-2---------------------------------------------------------------------------------
-----------------------------------------------------------------------------------
-----------------------------------------------------------------------------------
-----------------------------------------------------------------------------------

F G
Tú me amaras, yo te amare
C
A mi lado serás feliz

F G
Tú me amaras, yo te amare
Am
A tu lado seré feliz

-------------0-3h5-----------------------------------------------------------------
---0-1-3-1-3-----------------------------------------------------------------------
-2---------------------------------------------------------------------------------
-----------------------------------------------------------------------------------
-----------------------------------------------------------------------------------
-----------------------------------------------------------------------------------

F G
Tú me amaras, yo te amare
C
A mi lado serás feliz
F G
Tú me amaras, yo te amare
Am
A tu lado seré feliz

-----3h5-5-------------------------------------------------------------------------
-5-5------------3h5-3--1h3-3-3-3--1-1-3/5-5----------------------------------------
------------5-5--------------------------------------------------------------------
-----------------------------------------------------------------------------------
-----------------------------------------------------------------------------------
-----------------------------------------------------------------------------------

-----3h5-5-------------------------------------------------------------------------
-5-5------------3h5-3--1h3-3-3-3--1-3-1h3------------------------------------------
------------5-5---------------------------2----------------------------------------
-----------------------------------------------------------------------------------
-----------------------------------------------------------------------------------
-----------------------------------------------------------------------------------

-----3h5-5-------------------------------------------------------------------------
-5-5------------3h5-3--1h3-3-3-3--1-1-3/5-5----------------------------------------
------------5-5--------------------------------------------------------------------
-----------------------------------------------------------------------------------
-----------------------------------------------------------------------------------
-----------------------------------------------------------------------------------

-----3h5-5-------------------------------------------------------------------------
-5-5------------3h5-3--1h3-3-3-3--1-3-1h3------------------------------------------
------------5-5--------------------------------------------------------------------
-----------------------------------------------------------------------------------
-----------------------------------------------------------------------------------
-----------------------------------------------------------------------------------

-5-3-0-2---------------------------------------------------------------------------
---------3-1-3-1-----0h1-----------------------------------------------------------
-----------------2-0-----2-2-2-2---------------------------------------------------
-----------------------------------------------------------------------------------
-----------------------------------------------------------------------------------
-----------------------------------------------------------------------------------

Am C
Que pasará, que pasará
G Am
Algo pasa en mi corazón

C
Que sientes tú, que siento yo
G Am
En el aire se siente amor
-5---7-8-5-------------------------------------------------------------------------
---5-------------------------------------------------------------------------------
-----------------------------------------------------------------------------------
-----------------------------------------------------------------------------------
-----------------------------------------------------------------------------------
-----------------------------------------------------------------------------------

Am C
Que pasará, que pasará
G Am
Algo pasa en mi corazón

C
Que sientes tú, que siento yo
G Am
En el aire se siente amor

-------------0-3h5-----------------------------------------------------------------
---0-1-3-1-3-----------------------------------------------------------------------
-2---------------------------------------------------------------------------------
-----------------------------------------------------------------------------------
-----------------------------------------------------------------------------------
-----------------------------------------------------------------------------------

F G
Tú me amaras, yo te amare
C
A mi lado serás feliz

F G
Tú me amaras, yo te amare
Am
A tu lado seré feliz

-------------0-3h5-----------------------------------------------------------------
---0-1-3-1-3-----------------------------------------------------------------------
-2---------------------------------------------------------------------------------
-----------------------------------------------------------------------------------
-----------------------------------------------------------------------------------
-----------------------------------------------------------------------------------

F G
Tú me amaras, yo te amare
C
A mi lado serás feliz

F G
Tú me amaras, yo te amare
Am
A tu lado seré feliz
-----3h5-5-------------------------------------------------------------------------
-5-5------------3h5-3--1h3-3-3-3--1-1-3/5-5----------------------------------------
------------5-5--------------------------------------------------------------------
-----------------------------------------------------------------------------------
-----------------------------------------------------------------------------------
-----------------------------------------------------------------------------------

-----3h5-5-------------------------------------------------------------------------
-5-5------------3h5-3--1h3-3-3-3--1-3-1h3------------------------------------------
------------5-5---------------------------2----------------------------------------
-----------------------------------------------------------------------------------
-----------------------------------------------------------------------------------
-----------------------------------------------------------------------------------

-----3h5-5-------------------------------------------------------------------------
-5-5------------3h5-3--1h3-3-3-3--1-1-3/5-5----------------------------------------
------------5-5--------------------------------------------------------------------
-----------------------------------------------------------------------------------
-----------------------------------------------------------------------------------
-----------------------------------------------------------------------------------

-----3h5-5-------------------------------------------------------------------------
-5-5------------3h5-3--1h3-3-3-3--1-3-1h3------------------------------------------
------------5-5--------------------------------------------------------------------
-----------------------------------------------------------------------------------
-----------------------------------------------------------------------------------
-----------------------------------------------------------------------------------

-5-3-0-2---------------------------------------------------------------------------
---------3-1-3-1-----0h1-----------------------------------------------------------
-----------------2-0-----2-2-2-2---------------------------------------------------
-----------------------------------------------------------------------------------
-----------------------------------------------------------------------------------
-----------------------------------------------------------------------------------

C Em
Ay sirena, sirena, sirena
C Am
Sirena encantadora, sirena

C Em
Ay sirena, sirena, sirena
C Am
Sirena encantadora, sirena

C Em
Tu nomas estas sabiendo sirena
C Am
La vida que voy pasando sirena

C Em
Tu nomas estas sabiendo sirena
C Am
La vida que voy pasando sirena
-10/12-12-12-12--12-12-10h12p10--8-8h10----7/8-8-8-8-8--8h10-10/12--8-8h10---------
-12-------------------------------------8----------------------------------10------
-12--------------------------------------------------------------------------------
-----------------------------------------------------------------------------------
-----------------------------------------------------------------------------------
-----------------------------------------------------------------------------------

-10/12-12-12-12-12--12-12-10h12p10--8-8h10----7/8-8-8-8-8--8h10-10/12--8-8h10------
-12----------------------------------------8----------------------------------10---
-12--------------------------------------------------------------------------------
-----------------------------------------------------------------------------------
-----------------------------------------------------------------------------------
-----------------------------------------------------------------------------------

-7/8-8-8-8-8--8h10-10-10/12--8-8h10-----7/8-8-8-8-8--8h10-10-10/12--8-8h10---------
------------------------------------8--------------------------------------10------
-----------------------------------------------------------------------------------
-----------------------------------------------------------------------------------
-----------------------------------------------------------------------------------
-----------------------------------------------------------------------------------

-7/8-8-8-8-8--8h10-10-10/12--8-8h10-----7/8-8-8-8-8--8h10-10-10/12--8-8h10---------
------------------------------------8----------------------------------------------
-----------------------------------------------------------------------------------
-----------------------------------------------------------------------------------
-----------------------------------------------------------------------------------
-----------------------------------------------------------------------------------

-5-3-0-2---------------------------------------------------------------------------
---------3-1-3-1-----0h1-----------------------------------------------------------
-----------------2-0-----2-2-2-2---------------------------------------------------
-----------------------------------------------------------------------------------
-----------------------------------------------------------------------------------
-----------------------------------------------------------------------------------

C Em
En esa calle derecha, sirena
C Am
Dicen que juran matarme, sirena

C Em
En esa calle derecha, sirena
C Am
Dicen que juran matarme, sirena

C Em
Ay no me maten jurando, sirena
C Em
Mañana mismo ya me voy con mi amor

C Em
Ay no me maten jurando, sirena
C Em
Mañana mismo ya me voy con mi amor
-10/12-12-12-12--12-12-10h12p10--8-8h10----7/8-8-8-8-8--8h10-10/12--8-8h10---------
-12-------------------------------------8----------------------------------10------
-12--------------------------------------------------------------------------------
-----------------------------------------------------------------------------------
-----------------------------------------------------------------------------------
-----------------------------------------------------------------------------------

-10/12-12-12-12-12--12-12-10h12p10--8-8h10----7/8-8-8-8-8--8h10-10/12--8-8h10------
-12----------------------------------------8----------------------------------10---
-12--------------------------------------------------------------------------------
-----------------------------------------------------------------------------------
-----------------------------------------------------------------------------------
-----------------------------------------------------------------------------------

-7/8-8-8-8-8--8h10-10-10/12--8-8h10-----7/8-8-8-8-8--8h10-10-10/12--8-8h10---------
------------------------------------8--------------------------------------10------
-----------------------------------------------------------------------------------
-----------------------------------------------------------------------------------
-----------------------------------------------------------------------------------
-----------------------------------------------------------------------------------

-7/8-8-8-8-8--8h10-10-10/12--8-8h10-----7/8-8-8-8-8--8h10-10-10/12--8-8h10---------
------------------------------------8----------------------------------------------
-----------------------------------------------------------------------------------
-----------------------------------------------------------------------------------
-----------------------------------------------------------------------------------
-----------------------------------------------------------------------------------

-5-3-0-2---------------------------------------------------------------------------
---------3-1-3-1-----0h1-----------------------------------------------------------
-----------------2-0-----2-2-2-2---------------------------------------------------
-----------------------------------------------------------------------------------
-----------------------------------------------------------------------------------
-----------------------------------------------------------------------------------

C
Mentirosa, vanidosa
G Am
Tú no tienes corazón
C
Mentirosa, vanidosa
G Am
Tú mientes sin compasión

F Em
Tú me engañas, tú me mientes
G Am
Eres mala en el amor

F Em
Tú me engañas, tú me mientes
G Am
Eres fría en el amor
-10-12-15-15h17p15--10-12-15-15h17p15--12-10h12-8-10-10-8h10-----------------------
-12-----------------12---------------------------------------10--------------------
-12-----------------12-------------------------------------------------------------
-----------------------------------------------------------------------------------
-----------------------------------------------------------------------------------
-----------------------------------------------------------------------------------

-10-12-15-15h17p15--10-12-15-15h17p15--12-10h12-8-10-10-8h10-----------------------
-12-----------------12---------------------------------------10--------------------
-12-----------------12-------------------------------------------------------------
-----------------------------------------------------------------------------------
-----------------------------------------------------------------------------------
-----------------------------------------------------------------------------------

---------7/8-8--10p8-------------12-10h12-8-10-10-8h10-----------------------------
-8h10-10-------------10-8h10---------------------------10--------------------------
-----------------------------9-----------------------------------------------------
-----------------------------------------------------------------------------------
-----------------------------------------------------------------------------------
-----------------------------------------------------------------------------------

---------7/8-8--10p8-------------12-10h12-8-10-10-8h10-----------------------------
-8h10-10-------------10-8h10---------------------------10--------------------------
-----------------------------9-----------------------------------------------------
-----------------------------------------------------------------------------------
-----------------------------------------------------------------------------------
-----------------------------------------------------------------------------------

C
Mentirosa, vanidosa
G Am
Tú no tienes corazón

C
Mentirosa, vanidosa
G Am
Tú mientes sin compasión

F Em
Tú me engañas, tú me mientes
G Am
Eres mala en el amor

F Em
Tú me engañas, tú me mientes
G Am
Eres fría en el amor

-----------------------------------------------------------------------------------
-----------------------------------------------------------------------------------
-----------------------------------------------------------------------------------
-----------------------------------------------------------------------------------
---------------------------------2h3-0-0-----------------------------------2h3-0-0-
-0-3h5-5-3--0-0-3h5-5-3--0-3-3-3-----------0-3h5-5-3--0-0-3h5-5-3--0-3-3-3---------
-----------------------------------------------------------------------------------
---------------------------------0h1---------------------------------------0h1-----
---0h2-2-0------0h2-2-0----0-0-0-----2-2-----0h2-2-0------0h2-2-0----0-0-0-----2-2-
-2----------2-2----------2-----------------2----------2-2----------2---------------
-----------------------------------------------------------------------------------
-----------------------------------------------------------------------------------

-5-3-0-2---------------------------------------------------------------------------
---------3-1-3-1-----0h1-----------------------------------------------------------
-----------------2-0-----2-2-------------------------------------------------------
-----------------------------------------------------------------------------------
-----------------------------------------------------------------------------------
-----------------------------------------------------------------------------------