Está en la página 1de 2

Julieta Venegas

Andar Conmigo (TAB)

AQUI ESTA LA TAB DE ESTA CANCION


SALUDOSA TODA LA BANDA DE ACAPULCO....

INTRO:
E---------------------------------------------------
A--3-3-3---------3-3-3---------3-3-3---------3------
D----2---2-2-------2---2-2-------2---2-2------------
G----0-------0-0---0-------0-0---0-------0-0--------
B----1-------------1-------------1------------------
e----0-------------0-------------0------------------

F
Hay tanto que quiero contarte
G C
hay tanto que quiero saber de ti
F G
ya podemos empezar poco a poco
F G
cuentame que te trae por aqui

C F
no te asustes de decirme la verdad
G C
eso nunca puede estar asi tan mal
F G
yo tambien tengo secretos para darte
F G C
y que sepas que ya no me sirven mas
E F
hay tantos caminos por andar

CORO:
G C F G
Dime si tu quisieras andar conmigo oh oh
G C F G
cuentame si quisieras andar conmigo oh oh
G C F G
dime si tu quisieras andar conmigo oh oh
G C F G
cuentame si quisieras andar conmigo oh oh

C F
Estoy ansiosa por soltarlo todo
G C
desde el principio hasta llegar el dia de hoy
F G
una historia tengo en mi para entregarte
F G
una historia todavía sin final

C F
Podríamos decirnos cualquier cosa
G C
incluso darnos para siempre un siempre no
F G
pero ahora frente a frente aquí sentados
F G C
festejemos que la vida nos cruzo
E F
hay tantos caminos por andar

CORO:
G C F G
Dime si tu quisieras andar conmigo oh oh
G C F G
cuentame si quisieras andar conmigo oh oh
G C F G
dime si tu quisieras andar conmigo oh oh
G C F G
cuentame si quisieras andar conmigo oh oh

C F G
E----------------------------------------------------
A----------------------------------------------------
D----------------------------------------------------
G----------------------------------2-----------------
B--1-0--0-0-0-1-3-0-1--1-1-1-3---1----1-1-1-3-----0--
e------------------------------0--------------0-1----
Si quisieras andar conmigo

C F G
E----------------------------------------------------
A----------------------------------------------------
D----------------------------------------------------
G----------------------------------2-----------------
B--1-0--0-0-0-1-3-0-1--1-1-1-3---1----1-1-1-3-----0--
e------------------------------0--------------0-1----
Si quisieras andar conmigo

C F G
E----------------------------------------------------
A----------------------------------------------------
D----------------------------------------------------
G----------------------------------2-----------------
B--1-0--0-0-0-1-3-0-1--1-1-1-3---1----1-1-1-3-----0--
e------------------------------0--------------0-1----
Si quisieras andar conmigo

C F G
E----------------------------------------------------
A----------------------------------------------------
D----------------------------------------------------
G----------------------------------2-----------------
B--1-0--0-0-0-1-3-0-1--1-1-1-3---1----1-1-1-3-----0--
e------------------------------0--------------0-1----
Si quisieras andar conmigo