Está en la página 1de 3

Platícame de Ti Key of A

Arsenal Efectivo
E|--9---10--10/12--10-10--9--9--9---10--10/12
B|--10--12--12/14--12-12--10-10-10--12--12/14
G|-------------------------------------------
D|-------------------------------------------
A|-------------------------------------------
E|-------------------------------------------
E|--12-12-12/16--16-16-16--14--12--10-10-10
B|--14-14-14/17--17-17-17--15--14--12-12-12
G|-----------------------------------------
D|-----------------------------------------
A|-----------------------------------------
E|-----------------------------------------
E|--16-16-16--14--12-----12--12--
B|--17-17-17--15--14-----14--14--
G|-------------------------------
D|-------------------------------
A|-------------------------------
E|-------------------------------
E|--14-14-14--12--10--9--9---
B|--15-15-15--14--12--10-10--
G|---------------------------
D|---------------------------
A|---------------------------
E|---------------------------

E|--12--10--9---7-7-----10-10-10--9---7---5
B|--14--12--10--9-9-----12-12-12--10--9---7
G|-----------------------------------------
D|-----------------------------------------
A|-----------------------------------------
E|-----------------------------------------

E|--5--5----5---7---9---9/10--10-10-----10--10
B|--7--7--7---9---10---10/12--12-12-----12--12
G|--------------------------------------------
D|--------------------------------------------
A|--------------------------------------------
E|--------------------------------------------
E|--10-10--10-10-10--9---9---7-7----7--7--7--7------7
B|--12-12--12-12-12--10--10--9-9----9--9--9----9--9--
G|---------------------------------------------------
D|---------------------------------------------------
A|---------------------------------------------------
E|---------------------------------------------------
E|----------9-------------------------------

Page 1
B|--10--12-----9--------9-10--12--12/14--9--
G|-------------------11---------------------
D|------------------------------------------
A|------------------------------------------
E|------------------------------------------
Intro Acordes:
Bm E7 A E/G# F#m7
Bm E7 A

Bm
Que si ando cansado.
E7
Que si no tengo sueño.
A E/G# Fm#7
Pues la neta, yo sin duda me desvelo.
Bm E7
Si es por estar, junto a ti.
A
Me amanezco, Que venga el sol.

Bm
Que pregúntame de mi.
E7
Que platicame de ti.
A E/G# Fm#7
De tus gustos, pasatiempos, favoritos.
Bm E7
Quiero saber. Más de ti.
A
Cuéntame bien. De tu interés.

(intro acordes con el requinto)


Bm
Que haz sufrido del amor.
E7
Que te han echo daño.
A E/G# Fm#7
Aquí estoy pa que platiques de tus penas.
Bm
Te ayudare.
E7
A olvidar.
A
Quiero curar, tus heridas.

Bm
Que te ago sonreír.
E7
Que sientes algo por mi.
A E/G# Fm#7
Que te gusta mi manera y como hablo.

Page 2
Bm E7
Conquistare. Y seras.
A
Te entregaras, Seras mía.

(requinto con el requinto una vez mas)

Bm E7 A E/G# F#m7

7 6 5 5 7
8 7 6 6 8
9 8 7 7 9
10 9 8 8 10
11 10 9 9 11
3 1 1 1 2 1 3 3 2 1 1 2 3 1 2 1 3

Page 3

También podría gustarte