Está en la página 1de 1

DOS GARDENIAS

Esta es la introducción la mayoría suenan como figuras de octavo.

Em
e---------0---------------0--------------------------------------
B---1--3-----3----1---0------0-----3---1---0---------------------
G-----------------------------------------------2----0-----------
D---------------------------------------------------------4------
A----------------------------------------------------------------
E----------------------------------------------------------------

C B7 Em
e----------------------------------------------------------------
B-1---0-------------------------------4--5-----------------------
G----------2--0------------------------------3--4----------------
D-------------------4--2--1--4--2-------------------4--5---1--2--
A----------------------------------------------------------------
E----------------------------------------------------------------

intro: Dm / Gm / Dm

Dm A7
Dos Gardenias para ti con ellas quiero decir
Dm Sb-Dm A7
te quiero, te adoro, mi vida.
Gm A7 Dm
Ponles toda tu atencion que seran tu corazon y el mio
Dm Cm
Dos Gardenias para ti que tendrán todo el calor
Gm
de un beso
Dm A7
De esos besos que te di y que jamás encontraras
Dm
en el calor de otro querer.
Dm

A su lado viviran y se hablaran


A7
como cuando estas conmigo
Gm A7 Dm
y hasta creeran que se diran te quiero
Dm Cm
Pero si un atardecer las gardenias de mi amor se
Gm Dm
mueren, es porque han adivinado que tu amor me ha
A7 Dm
traicionado porque existe otro querer. Es porque han
Dm A7
adivinado que tu amor me ha traicionado porque existe
Dm - Gm - Dm
otro querer.