Está en la página 1de 3

=====================================================================

| TABLATURAS Y ACORDES DE M�SICA EN ESPA�OL |


+------------------------ www.lacuerda.net -------------------------+
| ARTISTA: Arbol |
| CANCION: Cascara-mascara |
| AUTOR: Arbol (?) |
| ALBUM: -?- |
+------------------------------------------------------TAB-arbo0182-+
| TRANS: Juan Gaete |
| CORREO: juan_ypunto@yahoo.com |
=====================================================================

Bueno aqui les mando el primer tema que saco,espero que lo entiendan,
las notas se hacen en arpegios, mas o menos para el que no sabe esta
trascripto*.desde ya suerte!!!

Intro:

Guitarra:

|------------------------|---------------------|---------------------
|--3/5-5-5-6-5-5-3-3-2-3-|-3-3-3-5-3-3-1-1-0-1-|-1-1-1-3-1-1-0-0---0-
|--3/5-5-5-7-5-5-4-4-3-4-|-4-4-4-5-4-4-2-2-1-2-|-2-2-2-4-2-2-1-1-3-1-
|------------------------|---------------------|-----------------5---
|------------------------|---------------------|---------------------
|------------------------|---------------------|---------------------

|------------|------------
|-0-0-0-1-0--|------------
|-1-1-1-2-0--|-------2----
|------------|-----2------
|------------|-0-3--------
|------------|------------

Bajo:

|--------|---------|-------|-------------------|---------|---------
|------7-|---------|-------|-------------------|---------|-------7-
|--5-8---|-----2---|-----7-|-------5---------2-|-----2---|-----7---
|--------|-0-4---4-|-5-8---|-8-8-8---8-7-0-4---|-0-4---4-|-5-8-----

Guitarra:

Rem lam Mi lam

---------1-----------0-----------0------------0------
-------3---3-------1---1-------0---0--------1---1----
-----2-------2---2-------2---1--------1---2-------2--
-----------------------------------------------------
--0------------0-----------2------------0------------
-----------------------------------------------------

Las cosas que no hiciste porque te parece que no le gusto


Las cosas que no le dijiste porque te parece que no te escucho
Las cosas que no hiciste por miedo al que diran
Las cosas que no le dijiste porque no hay palabras que puedan hablar

Guitarra:(solo la primera vez)


--------1---1-------0---0---------0---0--------0---0-
------3---3-------1---1---------0---0--------1---1---
----2-----------2-------------1------------2---------
-----------------------------------------------------
-0------------0------------2-------------0-----------
-----------------------------------------------------

y la cascara mascara tapa la cara que rie y que llora y que te mintio
y la chica que pasa te deja su olor en el pecho caliente como una flor

(intro)

verso(igual)

y llegas a tu casa y tu chica e dice porque no viniste a la noche que hiciste


y te vas a la esquina la dejas hablando y te vas a la esquina a tomar un helado
mientras el sol quema la brisa despeina miras para el piso y te quedas pensando
en...

Las cosas que no hiciste porque te parece que no le gusto


Las cosas que no le dijiste porque te parece que no te escucho
Las cosas que no hiciste por miedo al que diran
Las cosas que no le dijiste porque no hay palabras que puedan hablar

(igual que los versos)

y la cascara mascara tapa la cara que rie y que llora y que te mintio
y la chica que pasa te deja su olor en el pecho caliente como una flor

(Cuando silban hay dos guitarras,aca esta la principal y el cote de la segunda)

Guitarra 1:

Fa Fa(sostenido) Do La Rem7

---------1-------------2------------0--------------5-------------5------
-------1---1---------2--2---------1---1----------5---5---------6---6----
-----2-------2-----3------3-----0-------0------6-------6-----7-------7--
------------------------------------------------------------------------
---3-------------4------------3--------------7-------------5------------
-1-------------2------------0--------------5-------------5--------------

sol Guitarra 2:
---------3------
-------3---3----
-----4-------4-- --4--3--2-----
---------------- -----------5--
---5------------ --2--1--0-----
-3-------------- -----------3--

---------1-------------2------------0--------------5-------------5------
-------1---1---------2--2---------1---1----------5---5---------6---6----
-----2-------2-----3------3-----0-------0------6-------6-----7-------7--
------------------------------------------------------------------------
---3-------------4------------3--------------7-------------5------------
-1-------------2------------0--------------5-------------5--------------

---------3------ ------------ --------


-------3---3---- ------------ --------
-----4-------4-- --4--6--8--- -1------
---------------- ------------ -2------
---5------------ --2--4--6--- -2------
-3-------------- ------------ --------

(las mismas notas pero en acordes)

y la cascara mascara...

final:

rem lam
el sol que la mira doblando la esquina
mi la(+)
y el viento le dice...
la
de amor.

la(+)

---0------
---0------
---2------
---2------
---0------
---------

espero que les sirva,cualquier duda escribanme.


SE LA DEDICO A TODAS LAS ARBOLENSES,PORQUE SON LAS MEJORES!!!

========================= www.lacuerda.net ==========================


Este fichero es trabajo propio de su transcriptor y representa su
interpretaci�n personal de la canci�n. El material contenido en
esta p�gina es para exclusivo uso privado, por lo que se prohibe su
reproducci�n o retransmisi�n, as� como su uso para fines comerciales.
========================= www.lacuerda.net ==========================
1092991877