Está en la página 1de 5

INTRO MUDDY WATERS

INTRO:

E7 B7 A7 E7 B7
E |-------------------7--7---7-|-7---7---------2------------|--------7-6-5-----------7-9-|-0----------4------3--2---2-|-0--------------------------|
B |------------------w8-w8--w8-|w8--w8---------0---0--------|-5---5---------8-7-5-/9-----|----------------------------|-----0--0---0--0---0--2-0-2-|
G |----------------------------|-------------------------/6-|---6------------------------|----------4------3----2---2-|0h1-------2-----------2-0-2-|
D |----------------------------|---------------1------------|----------------------------|----------------------------|----------------------2-0-2-|
A |----------------------------|--------0-1-2--2------2-----|-0------0------0------0-----|----------------------------|-2------2------2------------|
E |---------------0------------|----------------------2-----|----------------------------|-0--------------------------|-0--------------------------|

T BONE WALKER LICKS

SWEET HOME CHICAGO

E |----------|----------------------------|----------------------------|----------------------------|----------------------------|
B |----------|----------------------------|------.--12-----------------|----------------------------|----------------------------|
G |----------|-12-------------------------|---12-14----12--------------|----------------------------|----------------------------|
D |---12--14-|-----14--------------12--14-|-------------------12----12-|----------------------------|--------------------12--14--|
A |----------|----------------------------|----------------------------|----------------------------|----------------------------|
E |----------|----------------------------|----------------------------|----------------------------|----------------------------|

E |----------------------------|----------------------------|----------------------------|------------------------------|
B |----------------------------|------.--12-----------------|----------------------------|--------------------/15--/15--|
G |-12-------------------------|---12-14----12--------------|----------------------------|--------------------/16--/16--|
D |-----14--------------12--14-|-------------------12----12-|----------------------------|------------------------------|
A |----------------------------|----------------------------|----------------------------|------------------------------|
E |----------------------------|----------------------------|----------------------------|------------------------------|
E |------------------------------|----------------------------|----------------------------|------------------------------|
B |--/15-------------------------|------.--12-----------------|----------------------------|------------------------------|
G |--/16-14--12------------------|---12-14----12--------------|----------------------------|------------------------------|
D |-------------14---12---12--14-|-------------------12----12-|----------------------------|------------------------------|
A |------------------------------|----------------------------|----------------------------|------------------------------|
E |------------------------------|----------------------------|----------------------------|------------------------------|

ALL YOUR LOVE

Am7 Dm7 Am7 Em7


E|-\10--------|------|-\10--------|------|-\10----------|------|-\10--------|-------|-\10----------------|
B|------------|------|------------|------|--------------|------|------------|-------|--------------------|
G|----7br9p5--|5-----|----7br9p5--|5-----|----7br9p5----|5h7~~~|----7br9p5--|5------|----7br9p5----7b9~~~|
D|-----------7|--7~~~|-----------7|--7~~~|-----------7--|------|-----------7|---7~~~|-----------7--------|
A|------------|------|------------|------|--------------|------|------------|-------|--------------------|
E|------------|------|------------|------|--------------|------|------------|-------|--------------------|

Dm7 Am7
E|-------|--------------|
B|-------|--------------|
G|--9-8-7|5h7p5~~-------|
D|-------|---------7-7~~|
A|-------|--------------|
E|-------|--------------|

Am7 Dm7 Am7


E|---------12---|------12---|---------12---|------12---|---------12|--------5~|---------12---|
B|---13---------|13---------|---13---------|13---------|---13------|----13--6~|---13---------|
G|14----14----14|---14----14|14----14----14|---14----14|14----14---|14------7~|14----14----14|
D|--------------|-----------|--------------|-----------|-----------|----------|--------------|
A|--------------|-----------|--------------|-----------|-----------|----------|--------------|
E|--------------|-----------|--------------|-----------|-----------|----------|--------------|
Em7 Dm7 Am7
E|---------12-------|7--7-7\5--5|-----------|----|
B|---13----------12\|8--8-8\6--6|-----------|----|
G|14----14----14----|9--9-9\7--7|9p7~-------|----|
D|------------------|-----------|-----7p5-7~|----|
A|------------------|-----------|-----------|----|
E|------------------|-----------|-----------|----|

THE THRILL IS GONE


TURN AROUND EDDIE TAYLOR

D7 E7

|----------------------------------------|------------------------------|
|----------------------------------------|------------------------------|
|----0h2-2-2—-0h2-2-2---0h2-0------------|------------------------------|
|-----------------------------2-1-0------|-0-1-2------------------------|
|-0---------------------------------3-0--|------------------------------|
|----------------------------------------|------------------------------|

INTRO T BONE WALKER STORMY MONDAY

JOHNNY B GOODE
HONEY HUSH COMPING

C7

|----|---------------------------|
|-7/-|-8-------------------------|
|-6/-|-7-------------------------|
|-7/-|-8--10-8/7-----------------|
|-6/-|-7---------10--------------|
|----|---------------------------|

F7

|----|---------------------------|
|-7/-|-8-------------------------|
|-7/-|-8--10-8/7-----------------|
|-6/-|-7---------10--------------|
|-7/-|-8-------------------------|
|----|---------------------------|

G7

|----|---------------------------|
|-9/-|-10------------------------|
|-9/-|-10--12-10/9---------------|
|-8/-|-9-----------10------------|
|-9/-|-10------------------------|
|----|---------------------------|

MOJO WORKING INTRO

|------------|--------------------------|--------------------------|
|--2/3--2/3--|-2/3----------------------|-2/3----------------------|
|--3/4--3-4--|-3/4--2-0-2-0-------------|-3/4-\2-0-----------------|
|------------|---------------2-0--------|----------2-0-------------|
|------------|--------------------------|--------------------------|
|------------|--------------------------|--------------------------|