Está en la página 1de 4

El Árbol de Mayo Key of G

Ariel Camacho
(/) Slide Up (\) Slide Down (h) Hammer On (p) Pull Off (b) Bend
(r) Release (v) Vibrato
E|--7--7--7--7--12--12--10--12-----12--12--
B|--8--8--8--8--13--13--12--13-----13--13--
G|-----------------------------------------
D|-----------------------------------------
A|-----------------------------------------
E|-----------------------------------------

E|--12--14--17-----14--15--15--14--12--10--10--
B|--13--15--19-----15--17--17--15--13--12--12--
G|---------------------------------------------
D|---------------------------------------------
A|---------------------------------------------
E|---------------------------------------------

E|--10-----10--10/14--14-----14--14--
B|--12-----12--12/15--15-----15--15--
G|----------------------------------
D|----------------------------------
A|----------------------------------
E|----------------------------------
E|--17--17--15-----14--14--
B|--19--19--17-----15--15--
G|-------------------------
D|-------------------------
A|-------------------------
E|-------------------------

E|--0--17--0--15--0--14--0--15--0--14--0--12--0--10-----
B|--0--19--0--17--0--15--0--17--0--15--0--13--0--12-----
G|------------------------------------------------------
D|------------------------------------------------------
A|------------------------------------------------------
E|------------------------------------------------------

E|--0--8---0--
B|--0--10--0--
G|------------
D|------------
A|------------
E|------------

E|--7-----------------------------------
B|--8--8--7--7--5--5-----5--------------
G|--------------------7-----7--5--4-----

Page 1
D|-----------------------------------7--
A|--------------------------------------
E|--------------------------------------

E|--------------------------------------------------
B|--------------------------5--8--7--5-----5--7--8--
G|-----4-----4-----4-----7--------------7-----------
D|--5-----5-----5-----5-----------------------------
A|--------------------------------------------------
E|--------------------------------------------------

E|--------------------------------
B|--8--7--5-----5-----------------
G|-----------7-----7--4-----------
D|-----------------------8--7--5--
A|--------------------------------
E|--------------------------------

E|---------------------------------
B|-------------------------------8-
G|--4--4--4--7--7--7--7-----4--7---
D|-----------------------5---------
A|---------------------------------
E|---------------------------------
English-Spanish Conversion: Ingles a Español Conversion:
A=LA
B=Si
C=DO
D=RE
E=Mi
F=FA
G=SOL
"#"=sostenido
"b"=bemol

Intro Acordes:
C D7 G D7 G

G
A veces me pongo a pensar
D7
mayormente andando pedo
C D7
si habrá valido la pena
C D7 G
llevar la vida que llevo
D7
vivo entre lujo y riquezas
C D7 G
pero no están los que quiero

Page 2
G D7 G
Mi nieto ya se me fue
D7
su padre sigue cautivo
C D7
mi hermano gran compañero
C D7 G
también se encuentra en presidio
D7
y el resto de mis retoños
C D7 G
muy pocas veces los miro
G7 C
Sesenta y tantos cumplí
D7 G
pero aun me siento fuerte
D7
a veces siento quebrarme
C D7 G
cuando recuerdo a Vicente
D7
pero si no llora el niño
C D7 G
como va a llorar el jefe
(intro acordes otra vez con el requinto)
G D7 G
Bernardo, Alonso y Ramón
D7
gracias por seguir conmigo
habido buenas y malas
C D7 G
y aun seguimos unidos
D7
compa Peña no se sienta
C D7 G
sabe que nunca lo olvido
G D7 G
El dinero da poder
D7
pero no compra una vida
C D7
si no ya hubiera comprado
C D7 G
la de aquel que se fue un día
D7
pa' hacerle un regalo a mi hijo

Page 3
C D7 G
sería su eterna alegría
G7 C
El árbol sigue de pie
D7 G
sus ramas le dan la vida
D7
no se quebrara el viejon
C D7 G
hace falta todavía
D7
no se preocupe compadre
C D7 G
que este hombre no se retira.

-----------------------------------

KEY/CLAVE:
Left Side Numbers = Fret numbers
Bottom Numbers = Finger numbers (index finger is 1, middle finger is
2, ring finger is 3, pinky is 4)
X on top = don't play the string, mute it
'O' on top = this string is played openly
If theres not a number on the bottom (usually on the 6th string, the
fat one), this means to use your thumb if you can.

Numeros al izquierda = los trastes


Numeros debajo = los dedos (primer dedo, segundo dedo, tercer dedo,
y el dedo chico que viene siendo el cuarto dedo)
'X' arriba = No toques esta cuerda, que no suene para nada
'O' arriba = esta cuerda se toca al aire o "abierta"
- Si no hay numero debajo de la cuerda (la sexta cuerda, la cuerda
mas gorda) esto quiero decir que uses tu dedo pulgar si es que
puedes.

C D7 G G7

2 3 3 3
3 4 4 4
4 5 5 5
5 6 6 6
6 7 7 7
2 1 4 3 2 4 1 3 2 1 1 T 3 2 4

Page 4