Está en la página 1de 3

Y Ahora Te Vas Key of A

Johnny Cortes y Los Plebes del Rancho


E|---------------------------------------------------
B|---------------------------------------------------
G|-----------------1--1h2--2--2--2--1--1-------------
D|--2--2--2--2--2-------------------------4--2h4--2--
A|---------------------------------------------------
E|---------------------------------------------------

E|--------------------------------
B|--------------------------------
G|--------------------------------
D|--4--2--0-----0-----------------
A|-----------4-----4--2--4--2--0--
E|--------------------------------

E|-------------------------------------------------------------
B|-------------------------------------------------------------
G|-----------------1--1h2--2--2--2--1h2p1----------------------
D|--2--2--2--2--2--------------------------4--2h4--2--2--2--2-2
A|-------------------------------------------------------------
E|-------------------------------------------------------------

E|--0--0-----0--0-----0--0--0--0--2--2--0--2--0--
B|--0--0-----0--0-----0--0--0--2--3--3--2--3--2--
G|--------2--------2-----------------------------
D|-----------------------------------------------
A|-----------------------------------------------
E|-----------------------------------------------

E|--2--2--2-2--2---2--2-2--
B|--2--2--2-2--2---2--2-2--
G|-------------------------
D|-------------------------
A|-------------------------
E|-------------------------

E|--0--0-----0--0-----0--0--0--0--2--2-0-0----
B|--0--0-----0--0-----0--0--0--2--3--3-2-0----
G|--------2--------2-----------------------2--
D|--------------------------------------------
A|--------------------------------------------
E|--------------------------------------------

E|-----------------------------------
B|-----------------------------------
G|-----------------------------------
D|-----4~~6~~7~~6~~4~~2--0-----------
A|--7~~---------------------4--2--0--
E|-----------------------------------

Page 1
E|--------------------------------------
B|--------------------------------------
G|--------------------------------------
D|----4----0-----0-------4----0----0----
A|--4----3-----2---0---4----3----2---0--
E|--------------------------------------

Intro Acordes:
D E7 A A7
D E7 A
E7 A
E7 A

A7 D E7 A
Yo quise darte todo, todo de mi vida
A7 D E7 A
saque de mis adentros lo que ahi crecia
E7 A
una obsecion inmensa por hacerte mia
E7 A
una voz en mi pecho que no me mentia
D E7 A
Pero las cosas buenas siempre cuestan tanto
A7 D E7 A
fue por demas luchar contra todo tu encanto
E7 A
y yo arriesgue contigo hasta la ultima gota
E7 A
del llanto que hoy refleja mi triste derrota
A E7
Y ahora te vas, sabiendo que no pude lograr
D E7 A
en tu alma motivar.....el amor que yo por ti sentia
A E7
a quien le daras todo lo que no me diste a mi
D E7 A A7
quien llorara por ti como yo...algun dia

(intro acordes con el requinto)


D E7 A
Pero las cosas buenas siempre cuestan tanto
A7 D E7 A
fue por demas luchar contra todo tu encanto
E7 A
y yo arriesgue contigo hasta la ultima gota
E7 A
del llanto que hoy refleja mi triste derrota
A E7
Y ahora te vas, sabiendo que no pude lograr
D E7 A
en tu alma motivar.....el amor que yo por ti sentia

Page 2
A E7
a quien le daras todo lo que no me diste a mi
D E7 A
quien llorara por ti como yo...algun dia

D E7 A A7

4 5 5 6
5 6 6 7
6 7 7 8
7 8 8 9
8 9 9 10
2 1 4 3 2 4 1 3 2 1 1 3 2 4

Page 3