Está en la página 1de 2

Canción Para Bañar La Luna – María Elena Walsh

INTRO
C Am
Ya la luna baja en camisón,
C Am
a bañarse en un charquito con jabón.
C Am
Ya la luna baja en tobogán,
C Am
revoleando su sombrilla de azafrán.

F G C
Quien la pesque con una cañita de bambú
F G#7 G C
se la lleva a Siu Quiú

Ya la luna viene en palanquín / a robar un crisantemo del jardín.


Ya la luna viene por allí / su kimono dice no, no y ella sí.

Quien la pesque con una cañita de bambú / se la lleva a Siu Quiú

Ya la luna baja muy feliz / a empolvarse con azúcar la nariz.


Ya la luna en puntas de pie / en una tacita china toma té.

Quien la pesque con una cañita de bambú / se la lleva a Siu Quiú

Ya la luna vino y le dio tos / por comer con dos palitos el arroz.
Ya la luna baja desde allá / y por el charquito-quito nadará

Quien la pesque con una cañita de bambú / se la lleva a Siu Quiú


INTRO

1|-----3---|
2|---0---0-| x 8
3|-0-------|
4|---------|
C

ACOMPAÑAMIENTO CORO

1|-----3---| 1|-----0---|
2|---0---0-| x 5 2|---0---0-| x 2
3|-0-------| 3|-0-------|
4|---------| 4|---------|
C Am X 2
1|-----3---| 1|-----0---|
2|---0---0-| x 4 2|---0---0-| x 2
3|-0-------| 3|-0-------|
4|---------| 4|---------|
C Am

1|-----0---|-----0---|-----0---|---|-2--3-|-------3--2-3--|
2|---2---2-|---2---2-|---2---2-|---|-3--0-|-4---2----3-0--|
3|-0-------|-0-------|-0-------|-0-|----0-|---0--------0--|
4|---------|---------|---------|---|-0----|----------0----|
F G C G C

ESTROFA

1|-----3---| 1|-----3---| 1|-----0---|


2|---0---0-| x 4 2|---0---0-| x 5 2|---0---0-| x 2
3|-0-------| 3|-0-------| 3|-0-------|
4|---------| 4|---------| 4|---------|
C C Am

1|-----3---| 1|-----0---|
2|---0---0-| x 4 2|---0---0-| x 2
3|-0-------| 3|-0-------|
4|---------| 4|---------|
C Am

1|-----0---| |-2--3-|-------3--2-3--|
2|---2---2-| x 5 |-3--0-|-4---2----3-0--|
3|-0-------| |----0-|---0--------0--|
4|---------| |-0----|----------0----|
F G C G C