Está en la página 1de 2

BELLA CIAO – Canción Popular

INTRO: Dm

Dm
Esta mañana me he levantado / O bella ciao, bella ciao, bella ciao, ciao, ciao.
Gm Dm A7 Dm
Esta mañana me he levantado / y he descubierto al invasor.
Dm
¡Oh! Guerrillero, quiero ir contigo / O bella ciao, bella ciao, bella ciao, ciao, ciao.
Gm Dm A7 Dm
¡Oh! Guerrillero, quiero ir contigo / porque me siento aquí morir.
Dm
Y si yo caigo, en la guerrilla / O bella ciao, bella ciao, bella ciao, ciao, ciao.
Gm Dm A7 Dm
Y si yo caigo, en la guerrilla / tú me debes sepultar.
Dm
Cava una fosa en la montaña / O bella ciao, bella ciao, bella ciao, ciao, ciao.
Gm Dm A7 Dm
Cava una fosa en la montaña / bajo la sombra de una flor.

Dm
Así la gente cuando la vea / O bella ciao, bella ciao, bella ciao, ciao, ciao.
Gm Dm A7 Dm
Así la gente cuando la vea / se dirá ¡qué bella flor!
Dm
Será la flor, de un guerrillero / O bella ciao, bella ciao, bella ciao, ciao, ciao.
Gm Dm A7 Dm
Será la flor, de un guerrillero / muerto por la libertad.

Gm Dm A7 Dm
Será la flor, de un guerrillero / muerto por la libertad.
A7 Dm
Muerto por la libertad.

BELLA CIAO - Melodía


Mano Izquierda: I índice – M mayor – A anular – m meñique

1|-----------|-----------|---------------------------|-------1---|
2|-----------|-----------|---------------------------|---3-5---3-|
3|-0-2-4-5-2-|-0-2-4-5-2-|-0-2-4-5--4-2-5--4-2-5-5-5-|-2---------|
4|-----------|-----------|---------------------------|-----------|
MI: I A m I I A m I I A m A I m A I m m m I M m I M

1|-1-----1---|---------|---------|
2|---5-3---5-|-5-3-----|---------|
3|-----------|-----5-4-|-0-5-4-2-|
4|-----------|---------|---------|
I m M I m m M m A m A I
BELLA CIAO EN Gm
Melodía (Mano Izquierda: I índice – M mayor – A anular – m meñique)

1|-------1----|-------1---|-------1------1------1-1-1-|---3-5-6-3-|-6-5-3-6-5-|
2|---3-5---3--|---3-5---3-|---3-5----5-3----5-3-------|-3---------|-----------|
3|-2----------|-2---------|-2-------------------------|-----------|-----------|
4|------------|-----------|---------------------------|-----------|-----------|
MI: I M m I M I M m I M I M m I m M I m M I I I I I A m I m A I m A

1|-5-3-1---|---1-0---|
2|-------5-|-------3-|
3|---------|-2-------|
4|---------|---------|
m M I m M I A