Está en la página 1de 21

Curso

de
Ukelele

Esta carpeta pertenece a: ___________________


Inicio clases el día: ___/_______/____
Nivel 1
Teoría.
 Las notas musicales y las alteraciones musicales.
 El Ukelele, sus partes y funciones.
 Definición de nota musical y acorde musical.
 Notación Musical Inglesa.
 Tablaturas para instrumentos de cuerdas pulsada y cómo leerla.
 Técnicas de ukelele: Hammer-On y Slide.

Canciones con Acordes y Melodías. (10)

1.- Himno a la alegría – Sinfonía N°9 de Beethoven.

2.- Estrellita ¿Dónde Estás? – Canciones Infantiles

3.- Los Pollitos Dicen… - Canciones Infantiles

4.- Feliz Cumpleaños – Canciones Populares

5.- My Heart Will Go on – Celine Dion (Titanic)

6.- Somewhere Over The Rainbow – Izrael Kamakawiwo'ole

7.- En el Muelle de San Blás – Maná

8.- Soul Sister - Train

9.- Bailando – Enrique Iglesias.

10.- Darte un beso – Prince Royce


Bienvenido/a
Estamos muy felices que tengas el deseo de aprender a entonar un instrumento tan especial como el bajo,
sabemos que no será un camino fácil pero confiamos que juntos con el esfuerzo de nosotros como institución
y maestros más tu constancia y mucha práctica del instrumento, haremos maravillas.

Siempre y en todo momento del presente curso si tienes una pregunta o duda, no vaciles en hablar con tu
instructor, estamos aquí para ayudarte a entender y entonar de la manera más correcta posible. ¡En
Cualquier Momento!

Si estamos listos, Empecemos.

Teoría Musical Básica (Notas Musicales, Alteraciones y algo más).


Antes de empezar propiamente a hablar del bajo necesitamos saber algo de teoría musical, es la base para
aprender a tocar cualquier instrumento musical.

Notas Musicales.- En música una NOTA es un sonido determinado por una vibración cuya frecuencia
fundamental es constante. Existen 7 notas musicales: Do, Re, Mi, Fa, Sol, La y Si. Si no las conocía,
apréndalas, es fundamental aprender cualquier instrumento musical. Además de estas notas, existen
símbolos en la teoría llamados alteraciones, que como dice su nombre alteran las notas musicales y son 3:

Sostenido: Sube la entonación un semitono.

Bemol: Baja la entonación un semitono.

Becuadro: Vuelve al tono natural de una nota musical anteriormente alterada.

Nota: Si algo no está claro, pregúntale a tu instructor.


¿Qué es Ukelele y como está conformado?
El ukelele (o ukulele) es un instrumento de cuerda
utilizado como instrumento principal en la música de
las islas Hawái, Tahití y la isla de Pascua que
originalmente tenía cinco cuerdas. Es una adaptación
del cavaquinho portugués creada en la década de 1880 en
Hawái por inmigrantes portugueses. En la Polinesia no
existían instrumentos de cuerda antes de los siglos XIX y
XX, respectivamente, siendo el ukelele un instrumento
reciente en esta cultura.

En Estados Unidos, en general, el ukelele fue también el


primer instrumento con el que varios artistas
contemporáneos de ese país y del Reino Unido accedieron
al mundo de la música. Entre todos ellos habría que citar a
Tiny Tim, Vic Chesnutt, Dick Dale, Jimi Hendrix, Artie Shaw,
Neil Young, Eddie Vedder, Christofer Drew, George
Harrison, Paul McCartney, George Benson y Brian May,
entre otros.

Tipos de Ukelele
Mi primera melodía (Tablaturas).
La tablatura es una representación del brazo del ukelele por medio de cuatro líneas dispuestas de manera
horizontal representando las cuerdas del ukelele (si se trata de una guitarra, serán seis líneas y así con
cualquier instrumento). A la izquierda, al principio de cada línea horizontal se colocan letras en *Cifrado
americano que dicen las notas de cada cuerda. La cuerda “A” estará representada arriba de todo, es decir
es la primera línea que se dibuja.
*Cifrado americano

A|-------------------------------------------------------------|
E|-------------------------------------------------------------|
C|-------------------------------------------------------------|
g|-------------------------------------------------------------|

Básicamente, la tablatura indica que nota se debe tocar en el lugar exacto. Los números representaran el
traste en el que está ubicada la nota, en el caso de que diga 0 se tomará como una cuerda al aire. Es
importante saber que en un TAB no se indican la duración de las notas, es mejor conocer la canción para
darte una idea de cómo tocarla.

Himno a la Alegría
C G C G

A|--------------|--------------|-------------|----------------|
E|--0--0--1--3--|--3--1--0-----|----------0--|--0-------------|
C|--------------|-----------2--|--0—0--2-----|--------2—-2----|
g|--------------|--------------|-------------|----------------|

C G C G C

A|--------------|--------------|-------------|----------------|
E|--0--0--1--3--|--3--1--0-----|----------0--|----------------|
C|--------------|-----------2--|--0—0--2-----|---2—---0—0-----|
g|--------------|--------------|-------------|----------------|

G C G C G Am D7 G

A|--------------|---------------|---------------|--------------|
E|--------0-----|-----0-1-0-----|-----0-1-0-----|---------3----|
C|--2--2-----0--|--2---------0--|-2----------2--|--0----2------|
g|--------------|---------------|---------------|--------------|

C G C G C

A|--------------|--------------|-------------|----------------|
E|--0--0--1--3--|--3--1--0-----|----------0--|----------------|
C|--------------|-----------2--|--0—0--2-----|---2—---0—0-----|
g|--------------|--------------|-------------|----------------|
¡Muy Bien! ¿Qué tal la primera melodía tocada en tu ukelele? ¿Te gustó? ¿Sonaba al Himno a la Alegría o
Tristeza? :D. Bien ahora continuaremos con nuestra siguiente canción llamada “Estrellita, ¿Dónde Estás?”,
seguro la sabes muy bien, en la escuela a cada niño se la enseñaban.

Estrellita

C G F C F C G C

A|----------0-0-----|---------------------|
E|------------------|---1-1--0-0----------|
C|-0-0--------------|--------------2-2--0-|
g|-----0-0--------0-|---------------------|

Estrellita ¿dónde estás? Quiero verte sin tilar

C F C G C F C G

A|----------------------|-------------------|
E|--------1-1--0--0-----|------1--1--0-0----|
C|--------------------2-|-----------------2-|
g|--0--0----------------|-0-0---------------|

Sobre-el cielo sobre-el mar un dia-man-te de verdad

C G F C F C G C

A|----------0-0-----|---------------------|
E|------------------|---1-1--0-0-----3----|
C|-0-0--------------|--------------2----0-|
g|-----0-0--------0-|---------------------|

Estrellita ¿dónde estás? Quiero verte sin tilar

El secreto para aprender a tocar cualquier instrumento musical es la práctica, mientras más lo hagas, tus
habilidades aumentarán y podrás tocar mejor la canción que practicas, ahora si ¡A practicar!
En esta ocasión aprenderemos otra canción infantil llamada “Los pollitos dicen”, parece algo muy muy fácil
pero te ayudará a que tu vocabulario de canciones pueda aumentar y así también tu digitación de los trastes
del ukelele.

Los Pollitos Dicen…

C G F C F C G C C

A|---------------0-3-0-3-------------------------------3-------|
E|-----0-1-3-3------------3-3--1-3-1-3--0-0----0---0---0-------|
C|-0-2---------------------------------------2---2---0-0-------|
g|-----------------------------------------------------0-------|

C G F C F C G C C

A|---------------0-3-0-3-------------------------------3-------|
E|-----0-1-3-3------------3-3--1-3-1-3--0-0----0---0---0-------|
C|-0-2---------------------------------------2---2---0-0-------|
g|-----------------------------------------------------0-------|

C G F C F C G C C

A|---------------0-3-0-3-------------------------------3-------|
E|-----0-1-3-3------------3-3--1-3-1-3--0-0----0---0---0-------|
C|-0-2---------------------------------------2---2---0-0-------|
g|-----------------------------------------------------0-------|

¿Te diste cuenta que al final de cada reglón terminamos tocando


todas las notas de nuestro instrumento? Esto se llama un acorde, el
acorde que tocamos allí es Do Mayor, en notación o sistema inglés
es la letra “C”. En la imagen se muestra la manera correcta de tocar
C mayor, usando el tercer dedo (anular), pisas la 1era cuerda en el
3er traste de tu ukelele y tocas todas las cuerdas.
Notación Inglesa.
Antes de continuar debemos primero saber qué es notación inglesa. El sistema de notación musical inglés
o cifrado americano es un tipo de notación musical alfabético.

La Notación inglesa no es complicada de entender, sólo requiere un punto de memorización, como en todo
lo relacionado a la música. Siempre que nos preguntan por las notas, decimos:

Do Re Mi Fa Sol La Si

En la notación inglesa, se tiene como referencia que la primera nota es LA, es decir se cuenta:

La Si Do Re Mi Fa Sol

Y se escribirá con la primera letra del alfabeto, LA = A, y así hasta Sol = G:

A B C D E F G

El resultado es entonces:

La Si Do Re Mi Fa Sol = A B C D E F G

Ésta sería la escritura de los acordes mayores. Los menores se escriben con una "m" minúscula la lado, por
lo que se escribirá:

LA menor = Am

SI menor= Bm

En el caso de los sostenidos y bemoles, se escribirá:

LA sostenido= A#

LA menor sostenido = A#m

La menor bemol = Abm

Sé que esta es la parte algo aburrida del curso pero es muy necesario, realmente indispensable, que
memorices éstas letras que son las notas musicales, para que al momento de ver una tablatura o partitura,
sepas cual acorde estamos entonando.
¡Acordes!
Si te preguntabas por qué habían letras encima de las tablaturas de las dos canciones anteriores, ésta es
la respuesta eran, acordes. En música, un acorde consiste en un conjunto de tres o más notas diferentes
que suenan simultáneamente y que constituyen una unidad armónica. Ahora que sabes que es un acorde y
tienes la guía, ahora… ¡a practicar! Cabe recalcar que mientras más practiques, mejor sonido y más
habilidad tendrás.
¡Muy bien! Estamos avanzando a pasos acelerados. Antes de continuar con la siguiente canción que es
Cumpleaños Feliz, necesitas revisar las primeras canciones que aprendiste junto con sus respectivos
acordes, debes haber ya aprendido la melodía, ahora aprende los acordes.

Cumpleaños Feliz
A E E A A D

A|------0------3-2-|------0-------5-3|------10----7--3-3--2---0|
E|--3-3-----3------|--3-3------3-----|--3-3--------------------|
C|-----------------|-----------------|--—----------------------|
g|-----------------|-----------------|-------------------------|

A E A

A|--8-8-7---3--5--3--|
E|-------------------|
C|-------------------|
g|-------------------|

A E E A A D

A|------0------3-2-|------0-------5-3|------10----7--3-3--2---0|
E|--3-3-----3------|--3-3------3-----|--3-3--------------------|
C|-----------------|-----------------|--—----------------------|
g|-----------------|-----------------|-------------------------|

A E A

A|--8-8-7---3--5--3--|
E|-------------------|
C|-------------------|
g|-------------------|

¡Listo! Ahora que conoces esta canción, cuando todos canten la canción antes de comer el pastel de
cumpleaños, puedes sacar tu ukelele y entonar la canción junto a todos tus amigos y familiares, genial ¿no?
Practica la canción de tal manera que puedas cantarla y tocarla al mismo tiempo.
My Heart Will Go On
C G Csus4 C

A|--3---3--3--3--|--2---3----2-|--2---3----5--|--7---5---|
E|--0------------|--3----------|--1-----------|----------|
C|--0------------|--2----------|--0-----------|----------|
g|--0------------|--0----------|--0-----------|----------|

C G F C

A|--3---3--3--3--|--2---3----2-|--0-----------|--2-------|
E|--0------------|--3----------|--1-----------|--3-------|
C|--0------------|--2----------|--0-----------|--2-------|
g|--0------------|--0----------|--2-----------|--0-------|

C G Csu4 C

A|--3---3--3--3--|--2---3----2-|--2---3----5--|--7---5---|
E|--0------------|--3----------|--1-----------|----------|
C|--0------------|--2----------|--0-----------|----------|
g|--0------------|--0----------|--0-----------|----------|

C G F C

A|--3---3--3--3--|--2---3----2-|--0-----------|--2-------|
E|--0------------|--3----------|--1-----------|--3-------|
C|--0------------|--2----------|--0-----------|--2-------|
g|--0------------|--0----------|--2-----------|--0-------|

Am G F G Am G F G

A|--3-------5----|---10--8-7--5|-7-8--7--5-3-2-3-2-|--0----2----|
E|--0-------3----|------------3|------8------3-----|--1----3----|
C|--0-------2----|-7----------2|------7------2-----|--0----2----|
g|--2-------0----|------------0|-------------0-----|--2----0----|

Am G F G Am G F

A|--3-------5----|---10--8-7--5|-7-8--7--5-3-2-3-2-|--0---------|
E|--0-------3----|------------3|------8------3-----|--1---------|
C|--0-------2----|-7----------2|------7------2-----|--0---------|
g|--2-------0----|------------0|-------------0-----|--2---------|

Csus4 C Esta bella canción es conocida por muchos como:


Titanic, ya que es la soundtrack de la película con el
A|--2---3---5---7---5---3| mismo nombre. Cantada por Celine Dion.
E|--1-------------------0|
C|--0-------------------0| Si te fijas con atención usarás acordes y melodías
g|--0-------------------0| juntos, es una manera de tocar llamada fingerstyle.
Somewhere Over The Rainbow
Hasta ahora hemos visto melodías en todas las canciones, pero en esta ocasión aprenderemos una canción
tocada únicamente con acordes. Somewhere Over The Rainbow, es una canción de Izrael kamakawiwoʻole
un hombre que es tan grande como su mismo talento.

Hasta ahora hemos tocado el ukelele de forma rítmica, usando los cifrados de acordes, tocando una vez
hacia abajo cada que vemos el acorde. De ahora en adelante usaremos patrones de rasgeo para poder
entonar nuestras canciones. El rasgeo de esta canción es:

C Em F C
ooo-ooo ooo-ooo ooo-ooo ooo-ooo
F E7 Am F
ooo-ooo ooo-ooo ooo-ooo ooo-ooo

C Em
Somewhere over the rainbow
F C
Way up high
F C
And the dreams that you dreamed of
G Am F
Once in a lullaby

C Em
Somewhere over the rainbow
F C
Blue birds fly
F C
And the dreams that you dreamed of
G Am F
Dreams really do come true

C
Someday I'll wish upon a star
Em Am F
Wake up where the clouds are far behind me
C
Where trouble melts like lemon drops
Em Am F
High above the chimney tops is where you'll find me

C Em
Somewhere over the rainbow
F C
Bluebirds fly
F C
And the dreams that you dare to
G Am F
Oh why oh why can't I
C
Someday I'll wish upon a star
Em Am F
Wake up where the clouds are far behind me
C
Where trouble melts like lemon drops
Em Am F
High above the chimney tops is where you'll find me

C Em
Somewhere over the rainbow
F C
Way up high
F C
And the dreams that you dare to
G Am F
oh why oh why can't I

End on C
En El Muelle de San Blas
¿Has oído a la banda Maná? Son músicos de México que han tenido mucho éxito en toda Latinoamérica y
otros países. Ésta es una de sus canciones más famosas, “En el muelle de San Blas”, la cual fue inspirada
en una triste historia de amor. Primero aprende los arpegios y melodías y luego continúa con los acordes.

El rasgeo de esta canción es:

Arpegios de Intro y Estrofas

Em A D G

A|--------2-------|--------0------|--------0------|-------5------|
E|----3--------3--|----0-------0--|----2-------2--|----7------8-5|
C|4-4---4----4---4|1-1---1---1---1|2-2—--2---2---2|--------------|
g|----------------|---------------|---------------|0-0---0--0----|

Estrofa

A|----------------|
E|----2-3--2------|
C¡2-4--------2h4-2!
g¡----------------¡
Oh Oh Oh Oh Oh Oh Oh

A|-------------|---------------------------------|
E|--------2-0-0|------2-3--2--------3--2---------|
C|2-2-2-2------|--2-4-—-------4-2-2------4-2-2---|
g|-------------|---------------------------------|

Ell-a des-pi-dio asu amor El par-tió enun bar-co en el mue-lle de San Blas

A|-------------|----------------------------------|
E|--------2-0-0|------2-3--2--------3--2----------|
C|2-2-2-2------|--2-4-—-------4-2--2------4-2-2---|
g|-------------|----------------------------------|
El ju-ró que volvería Yem-pa-pa-daen llan-to ella ju-ró que esperaría

A|2-2-2------------|----------------------------|
E|------3-3--5-5-5-|3-3-3-3--2---2-----2h3-2----|
C|-----------------|-----------4-----2-------4-2|
g|-----------------|----------------------------|
Mi-les de lu-nas pa-sa-ron ysiempre ella estaba en el muelle es-pe-ran-do

A|2-2-2------------|----------------------------|
E|------3-3--5-5-5-|3-3-3-3--2---2-----2h3-2----|
C|-----------------|-----------4-----2-------4-2|
g|-----------------|----------------------------|
Mu-chas tar-des se anidaron, se anidaron en su pelo y en sus labios
Arpegios del Coro

D A

A|--------0------|--------0------|
E|----2-------2--|----0-------0--|
C|2-2—--2---2---2|1-1---1---1---1|
g|---------------|---------------|

Coro

A|------2-2-2--------|------2-2-2----------|----2-2-2-2-3-2--|
E|3-3---------3h5-5-5|3-3---------3h5-5-5-5|3-3-------------3|
C|-------------------|---------------------|-----------------|
g|-------------------|---------------------|-----------------|
So-la, so-la en el ol-vi-do So-la, so-la con su espíritu So-la, con su a-mor el mar

A|---------|-----2----------|
E|3-3--2---|-------5-3-2-3--|
C|-------2-|-2-2------------|
g|---------|----------------|
So-laaaaaaa en el muelle de san blás

Maná
Es una banda mexicana de Rock latino y Pop rock. La banda se formó en Guadalajara, México en el año 1987.
Está conformada por Fernando Olvera (Guitarra rítmica, armónica y voz), Juan
Calleros (Bajo y Contrabajo) Alejandro González(Batería y voz) y Sergio Vallín (Guitarra líder y voz). La banda
ha vendido más de 40 millones de discos en todo el mundo, haciéndole el grupo de rock latino más exitoso de
todos los tiempos.
El sonido del grupo se basa en el Rock latino, ritmos latinos, pop latino y el rock en español. En un principio
recibieron el éxito comercial internacional en México, Australia y España, y desde entonces han ganado
popularidad y la exposición en toda Latinoamérica, Estados Unidos, Europa Occidental, Asia y Oriente Medio.
Mira un poco hacia atrás y date cuenta cuanto has avanzado… ¿bastante no? ¡Eso es Excelente! Ahora
entraremos a lo que me gusta llamar el trío final, que son las tres últimas canciones con una dificultad un
poco mayor a hasta las que hemos visto, si puedes entonar todas las canciones anteriores con fluidez y de
la manera correcta y estás listo para avanzar, vamos allá. La primera canción es Soul Sister de Train. Es
conocida como la canción de Movistar, ya que salía en muchos de sus comerciales.

Soul Sister
Intro
Rasgeo de la canción:
E Bm C#m A

A|------------------------------|
E|---2h4-2-0-2-4------0-2-4-----|
C|---------------4-1--------4-1-|
g|------------------------------|
Heee--y Hee-eee-eee-yyy Hee-eee-eee-yyy

Estrofa

E Bm C#m A

A|-------------------0------------------|
E|-0--2h4-4-4----2-4------4-2-0—2h4-4-4-|
C|--------------------------------------|
g|--------------------------------------|
Your lip-stick stains on the front lobe of my left side brains

A|---0-------------------0-------------------|
E|-4---4-2-2--0-4----------4-2---------------|
C|-----------------4---4-------4-3-3-3--4-3-1|
g|-------------------------------------------|
I knew I wouldn't forget you And so I went and let you blow my mind

A|----------------------0----------------------|
E|-2--4---------2--2--4----4-2-0—-4------2-----|
C|--------4-------------------------4--4----4--|
g|----------4----------------------------------|
Your sweet moon-beam The smell of you in eve-ry sin-gle dream I dream

A|-0-------------------0------------------------|
E|---4-2--0-4-0---0--2-—--4-2--0----------------|
C|-------------------------------3---3--3--4--1-|
g|--------------------------------4-------------|
I knew when we co-lli-ded you're the one I have decided Who's one ofmy kind
Coro

A|-2----------2--2---------------------------|
E|----4--2-0---------4-4-2-0-0-2-4-0—2h4-0---|
C|-------------------------------------------|
g|-------------------------------------------|
Hey soul sister, ain't that Mister Mister on the radio, stereo

A|----------------------|
E|-2h4-2—2h4-4-4-2------|
C|------------------1--4|
g|----------------------|
The way you move ain't fair you know

A|-2----------2--2-------------------------------|
E|----4--2-0-------4-4-2--0-0-2--4-------2-2-----|
C|----------------------------------1--4------3-4|
g|-----------------------------------------------|

Train es una banda de rock y pop estadounidense, proveniente de San Francisco, California, formada en
1994. Actualmente, la banda cuenta con un trío básico, formado por Patrick Monahan (voz), Jimmy
Stafford (guitarra, voz) y Scott Underwood (batería, percusión).

Hey soul sis-ter, I don't wanna miss a sin-gle thing you do-o--o toni-ght
Bailando
La segunda canción en nuestro trío final, es la muy conocida Bailando de Enrique Iglesias, empieza con una
introducción rápida la cual si practicas mucho lograrás dominar, luego continúa con una serie de acordes
los cuales se repiten a lo largo de toda la canción. Si aprendes la intro lo demás es “pan comido”.

Em C G D

A|-------------|---------|------------------------------|
E|-0-2-3-2-0-3-|-2-3-2-0-|-0-2-3-2-0-3-----0---------3-2|
C|-------------|---------|-------------2-2---2-2-2-2----|
g|-------------|---------|------------------------------|

Em C G D

A|---0-2-0---2-|-0---2--0-----|3-3-3-5-3-3-2---2-2-2-3-2-2-0-0----|
E|-3-------3---|---3------3-3-|--------------------------------3-2|
C|-------------|--------------|-----------------------------------|
g|-------------|--------------|-----------------------------------|

Em C
Yo te miro, se me corta la respiración
G D
Cuando tu me miras se me sube el corazón Rasgeo;
Em C
Y en silencio tu mirada dice mil palabras
G D
La noche en la que te suplico que no salga el sol

Am C
(Bailando, bailando, bailando, bailando)
Em
Tu cuerpo y el mio llenando el vacío
D
Subiendo y bajando (subiendo y bajando)

Am C
(Bailando, bailando, bailando, bailando)
Em
Ese fuego por dentro me va enloqueciendo
D
Me va saturando

Em
Con tu física y tu química también tu anatomía
C
La cerveza y el tequila y tu boca con la mía
G D
Ya no puedo mas (ya no puedo mas) Ya no puedo mas (ya no puedo mas)

Em
Con esta melodía, tu color, tu fantasía
C
Con tu filosofía mi cabeza esta vacía
G
Y ya no puedo mas (ya no puedo mas)
D
Ya no puedo mas (ya no puedo mas)
Em
Yo quiero estar contigo, vivir contigo
C
Bailar contigo, tener contigo
G
Una noche loca (una noche loca)
D
ay besar tu boca (y besar tu boca)
Em
Yo quiero estar contigo, vivir contigo
C G
Bailar contigo, tener contigo una noche loca
D
Con tremenda nota

Em C G D
(Ooooh, ooooh, ooooh, ooooh)

Em C
Tu me miras y me llevas a otra dimensión
G D
Tus latidos aceleran a mi corazón
Em C
Que ironía del destino no poder tocarte
Abrazarte
G D
y sentir la magia de tu olor

Am C
(Bailando, bailando, bailando, bailando)
Em
Tu cuerpo y el mio llenando el vacío
D
Subiendo y bajando (subiendo y bajando)
Am C
(Bailando, bailando, bailando, bailando)
Em
Ese fuego por dentro me va enloqueciendo
D
Me va saturando

Em
Con tu física y tu química también tu anatomía
C
La cerveza y el tequila y tu boca con la mía
G D
Ya no puedo mas (ya no puedo mas) Ya no puedo mas (ya no puedo mas)

Em
Con esta melodía, tu color, tu fantasía
C
Con tu filosofía mi cabeza esta vacía
G
Y ya no puedo mas (ya no puedo mas)
D
Ya no puedo mas (ya no puedo mas)
Y para terminar con broche de nuestro primer nivel de Ukelele, aprenderemos esta canción reggae-bachata
del cantante Prince Royce. El rasgeo de esta canción es tipo reggae X la “X” significa que hacemos
un palm mute con todas las cuerdas, es decir solo ponemos la mano encima de la cuerdas sin presionar con
fuerza para hacer un sonido percusivo.

Darte un Beso
Intro

A|-2---2-2-2-------------|
E|-3h4-4-4-4---2--0------|
C|-----------------------|
g|-----------------------|

A Bm C#m

A|---------------|----------------|---------------|-----2------|
E|---------------|----------------|---------------|-2h4---2----|
C|-3h4-3-1-X-1-1-|--3h4-3-1-3-----|-3h4-3-1-X-1-1-|---------4--|
g|---------------|----------------|---------------|------------|

A Bm C#m

A|---------------|----------------|---------------|------------|
E|---------------|----------------|---------------|------------|
C|-3h4-3-1-X-1-1-|--3h4-3-1-3-----|-3h4-3-1-X-1-1-|--4h6-6-6-4-|
g|---------------|----------------|---------------|------------|

Estrofa

E Bm C#m E Bm C#m

A|-2-2-2-2-2-------------|-2-2-2-2-2-------------|--------------|
E|-----------2-2---2h4-4-|-----------2-2---2h4-4-|-2-4-5--4-2---|
C|---------------4-------|---------------4-------|------------4-|
g|-----------------------|-----------------------|--------------|
Amarte como te amo es complicado Pensar como te pienso es un pecado

A Bm C#m A Bm C#m

A|-7-7-7-7-7-6-4-2-7-4---|-7-7-7-7-7-6-7-9-9-7---|--11--9—7-----|
E|-----------------------|-----------------------|--------------|
C|-----------------------|-----------------------|--------------|
g|-----------------------|-----------------------|--------------|
Mirar como te miro está prohibido Tocarte como quiero es un delito Ohh ohh ohhh
Pre Coro

Bm C#m

A|-2-2-2-4-6---2-2-2-4--6---|-4-4-4-6-7-6-4-6-7-6-4-6-7-|
E|--------------------------|---------------------------|
C|--------------------------|---------------------------|
g|--------------------------|---------------------------|
Ya no sé qué hacer Para que estés bien Si apagar el sol para encender tu amanecer

Bm C#m

A|-2-2-2-2-4-6--2-2-2-2-4-6-----|-4-4-4-6-7-6-4-6-7---------|
E|------------------------------|---------------------------|
C|------------------------------|---------------------------|
g|------------------------------|---------------------------|
Falar en portugués Aprender a hablar francés O bajar la luna hasta tus pies

Coro

A B C#m

A|-7-6-4-2-0-4-7-6--|-2-6-6-4-2-2-2-6-9-7-------|
E|------------------|---------------------------|
C|------------------|---------------------------|
g|------------------|---------------------------|
Yo sólo quiero darte un beso Y regalarte mis mañanas

A B C#m

A|-7-6-4-2-0-4-7-6--|-6--6--6-6-6-7-4-6-4-------|
E|------------------|---------------------------|
C|------------------|---------------------------|
g|------------------|---------------------------|
Cantar para calmar tus miedos Quiero que no te falte nada

A B C#m
A|-7-6-4-2-0-4-7-6--|-2-6-6-4-2-2-2-6-9-7-------|
E|------------------|---------------------------|
C|------------------|---------------------------|
g|------------------|---------------------------|
Yo sólo quiero darte un beso Llenarte con mi amor el alma

A B C#m

A|-7-6-4-2-0-4-7-6--|-6--6--6-6-6-7-4-6-4-------|
E|------------------|---------------------------|
C|------------------|---------------------------|
g|------------------|---------------------------|
Llevarte a conocer el cielo Quiero que no te falte nada