Está en la página 1de 196

El Cancionero

Fogatero
del Rorro

v.0.9
II
ve
loc
sa

s
na
nd

sandboar

a
bo
ida
ard
s

n
ing

are
a
sa sandbo
n

d
sandboarding

o d du

b
i g
nd arding
vér t

o
sa
sa
bo

a
sandboarding
nd
nd

r
ar

d
bo gg
sand
bo
i
boar

an
ard an di
ding
rdi
sin n
ng
sand g
a r d i

La Adrenalina al Alcance
odbo
r

de tu bolsillo
a
adnb

nag
asn
sa

d
aredin

a
nd

d
bo s

i
bo

sand
ar

c
boar
ard

ding
o
l ért i g o
ve v
ing

sandboarding
III
nd

Tablas aquí:
http://demonboards.fullboards.com
sa

contacto: demonboards@gmail.com
ÍNDICE
Nº ARTISTA CANCIÓN PÁG
1 Aleste Hay un Limite
2 Alexandre Pires Cosa del destino
3 Andrés Calamaro Flaca
4 Ataque 77 Amigo
5 Axel Fernando Tu Amor Por Siempre
6 Bacilos Caraluna
7 Bacilos Tabaco y Chanel
8 Bon Jovi Living on a Prayer
9 Bon Jovi Wanted Dead or Live
10 Bruce Dickinson Tears of the Dragon
11 Bryan Adams Everything I Do
12 Buddy Richard Tu Cariño Se Me Va
13 Café Quijano La Lola
14 Cat Stevens Father & Son
15 Cranberries Zombie
16 Cristina y Los Subterraneos Mil Pedazos
17 Cristina y Los Subterraneos Voy en un Coche
18 Deep Purple Soldier Of Fortune
19 Diego Torres Color Esperanza
20 Disney Hakuna Matata
21 Dogma Runaway
22 Eagles Hotel California
23 Eduardo Gatti Los Momentos
24 Enanitos Verdes Aún Sigo Cantando
25 Enanitos Verdes El Extraño de Pelo Largo
26 Enanitos Verdes La Muralla Verde
27 Enanitos Verdes Lamento Boliviano
28 Enanitos Verdes Te vi en un Tren
29 Enanitos Verdes Tus Viejas Cartas
30 Enrique Chilote Campos Corazón de Escarcha
31 Eric Clapton Tears in Heaven
32 Eros Ramazotti Otra como Tú
33 Extreme More than Words
34 Fito Páez 11 y 6
35 Fito Páez Al Lado del Camino
36 Gloria Estefan Hoy
37 Guns and Roses Patience
38 Guns and Roses Sweet Child O' Mine
39 Guns and Roses Welcome To The Jungle
40 Illapu Candombe para Jose
41 Illapu Lejos del Amor
42 Javiera y Los Imposibles Maldita Primavera
43 Javiera y Los Imposibles Te Amo Tanto
44 John Lennon Imagine
45 John Lennon Stand by Me

IV
46 Jorge Yáñez El Gorro de Lana
47 Kansas Dust in the Wind
48 Keko Yunge Estoy Pensado en Ti
49 Keko Yunge Inolvidable
50 La Mosca Tse Tse Para No Verte Más
51 La Mosca Tse Tse Yo te quiero dar
52 La Oreja de Van Gogh 20 de Enero
53 La Oreja de Van Gogh La Playa
54 La Oreja de Van Gogh Deseos de Cosas Imposibles
55 La Oreja de Van Gogh Dulce Locura
56 La Oreja de Van Gogh Vestido Azul
57 La Renga La Balada del Diablo y la Muerte
58 La Rue Morgue Sigues Dando Vueltas
59 Laura Pausini Las cosas que vives
60 Led Zepellin Starway to Heaven
61 Los Autenticos Decadentes Era Muda
62 Los Iracundos Puerto Montt
63 Los Jaivas Mira Niñita
64 Los Jaivas Todos Juntos
65 Los Picantes El Mamut Chiquitito
66 Los Picantes Falso Amor
67 Los Prisioneros El Baile de los que Sobran
68 Los Prisioneros Estrechez de Corazón
69 Los Rodríguez Hace Calor
70 Los Rodríguez La Milonga del Marinero y el Capitán
71 Los Rodríguez Palabras Más, Palabras Menos
72 Los Rodríguez Sin Documentos
73 Los Tres Amor Violento
74 Los Tres Dejate Caer
75 Los Tres He Barrido el Sol
76 Los Tres La Espada y la Pared
77 Los Tres Torre de Babel
78 Lucho Barrios La Joya del Pacífico
79 Maná Cachito
80 Maná Clavado En Un Bar
81 Maná Como te deseo
82 Maná En el Muelle de San Blás
83 Maná Rayando el Sol
84 Maná Te Lloré un Rio
85 Maná Vivir Sin Aire
86 Marc Anthony Escapémonos
87 Marc Anthony Hasta Ayer
88 Marc Anthony Que Precio Tiene el Cielo
89 Metallica Nothing Else Matters
90 Natalino Ángel del Pasado
91 Natalino Desde Que Te Ví
92 Natalino Si Hablo de Ti hablo de Mí
93 Nino Bravo Un Beso y una Flor
94 No doubt Don't Speak
95 Oasis Wonderwall
96 Pearl Jam Black
97 Piero Mi Viejo
98
99
100
101
Pink Floyd
Poison
Queen
Queen
Wish you Where Here
Every Rose Has Its Thorn
Bohemian Rhapsody
I Want To Break Free
V
102 Queen Love of my Life
103 Rata Blanca Mujer Amante
104 Rosana A fuego Lento
105 Rosana Si Tú No Estás
106 Scorpions Wind of Change
107 Silvio Rodríguez Ojalá
108 Sin Bandera Entra en mi Vida
109 Sin Bandera Mientes Tan Bien
110 Soda Stereo Corazón Delator
111 Soda Stereo Ella Usó Mi Cabeza Como Un Revolver
112 Soda Stereo Té para Tres
113 Sui Generis Canción para mi Muerte
114 Sui Generis Rasguña las piedras
115 The Beatles Let It Be
116 The Beatles Twist and Shout
117 The Beatles Yesterday
118 Tito Fernandez La Casa Nueva
119 U2 Elevation
122 Violeta Parra Gracias a la Vida
123 White Lion When The Children Cry

IMPORTANTE:
En las canciones pueden aparecer los acordes en notación sajona y en notación latina,
pero los dibujos de los acordes solo están en notación sajona, por lo que aquí dejo las
equivalencias:

NOTACIÓN
SAJONA LATINA
C DO
D RE
E MI
F FA
G SOL
A LA
B SI

VI
Aleste
Hay un Límite

Do Sol Lam Fa
A) Dejaste libre esa pasión reprimida
Do Sol Lam Fa
Y el brillo de tus ojos se apagó
Do Sol Lam Fa
Llegaste al límite en que mueren los sueños
Do Sol Lam Fa
Del lado oscuro de tu corazón.

Rem7 Lam
B) En esa noche fuego delirante
Fa Sol
Con tu espíritu se quedó
Rem7 Mim
Hoy tu alma dentro de una nube yace
Fa Sol
Presa del deseó y decepción.

Do Sol Lam Fa
Coro: Hay un límite que rompe el deseo
Do Sol Lam
Algo nuevo que va más allá
Do Sol Lam Fa Rem7 Fa
Hay un límite que cruza el placer carnal
Do Sol Lam Fa Do Sol Lam Fa
Y eso es amar, y eso es amar.

Do Sol Lam Fa
A) Oye, dime
Do Sol Lam Fa
Es que en verdad te han roto la ilusión
Do Sol Lam Fa
Te revelaste contra el monte de olvido
Do Sol Lam Fa
Y vives dentro de tu sedición.

Rem7 Lam
B) Fue tu primera vez un accidente
Fa Sol
Y el herido es tu corazón
Rem7 Mim
Las cicatrices pronto se caerán
Fa Sol
Porque hay un límite para el dolor.

1
Do Sol Lam Fa
Coro: Hay un límite que rompe el deseo
Do Sol Lam
Algo nuevo que va más allá
Do Sol Lam Fa Rem7 Fa
Hay un límite que cruza el placer carnal
Do Sol Lam Fa Do Sol Lam Fa
Y eso es amar, y eso es amar.

(Interludio...)

Rem7 Lam
B) Fue tu primera vez un accidente
Fa Sol
Y el herido es tu corazón
Rem7 Mim
Las cicatrices pronto se caerán
Fa Sol
Porque hay un límite para el dolor.

Do Sol Lam Fa
Coro: Hay un límite que rompe el deseo
Do Sol Lam
Algo nuevo que va más allá
Do Sol Lam Fa Rem7 Fa
Hay un límite que cruza el placer carnal
Do Sol Lam Fa Do Sol Lam Fa
Y eso es amar, y eso es amar.

Do Sol Lam Fa
Final: Eso es amar y eso es amar
Do Sol Lam Fa
Eso es amar y eso es amar hay un límite
Do Sol Lam Fa
Eso es amar y eso es amar
Do Sol Lam Fa Do
Eso es amar y eso es amar Oh uh nooo uh ooohh.

2
Alexandre Pires
Cosa del destino

G
Eso es cosa del destino,
B#m
ya sufrí mas estoy vivo
C Am
Voy buscando mi camino y el dolor sigue conmigo
F D
Quiero aprender a vivir... sin ti
G
Yo te ame y tú lo sabes,
B#m
no merezco tus maldades
C Am
Sufrimiento que invade, hoy te digo mis verdades
F D
Con tus infidelidades... se apagó
C D G F
el sueño que había para dos
C D Em A
Los planes que el tiempo se llevo... se llevo

CORO
D F#m G
Porque será que insistes en llamar
A D
Me torturas, ignoras y adoras hacerme llorar
F#m G
Porque no me olvidas de una vez?
A D
a pesar del dolor, del engaño existe un tal vez
F#m G
Porque será que insistes en llamar
A D
Me torturas, ignoras y adoras hacerme llorar
F#m G
Porque no me olvidas de una vez?
A B
A pesar del dolor del engaño existe un tal vez
C D
Talvez... Talvez

G
Yo te ame y tú lo sabes,
B#m
no merezco tus maldades
C Am
Sufrimiento que invade, hoy te digo mis verdades
F D
Con tus infidelidades se apago

3
C D G F
El sueño que había para dos
C D Em A
Los planes que el tiempo se llevo... se llevo
CORO
D F#m G
Porque será que insistes en llamar
A D
Me torturas, ignoras y adoras hacerme llorar
F#m G
Porque no me olvidas de una vez?
A B D#M
a pesar del dolor, del engaño existe un tal vez
Gm G#M
Porque será que insistes en llamar
B D#M
Me torturas, ignoras y adoras hacerme llorar
Gm G#M
Porque no me olvidas de una vez?
B B#M
A pesar del dolor del engaño existe un tal vez (BIS)
C#M D#M
Talvez, talvez...

4
Andrés Calamaro
Flaca
G B7
Flaca, no me claves
Em C
tus puñales, por la espalda
G D
tan profundo, no me duelen
G D
no me hacen mal.

G B7
Lejos, en el centro
Em C
de la tierra, las raíces
G D
del amor, donde estaban
G D
quedarán.

G B7
Entre no me olvides me dejé nuestros abriles
Em C
olvidados, en el fonde del placard
G D
en el cuarto de invitados, eran tiempos dorados
G D
un pasado mejor.

G B7
Aunque casi me equivoco y te digo poco a poco
Em C
no me mientas, no me digas la verdad
G D
no te quedes callada, no levantes la voz
G D
ni me pidas perdón.

G B7
Aunque casi te confieso yo también he sido un
Em C
perro compañero, un perro ideal
G D
que aprendió a ladrar y a volver al hogar
G D
para poder comer.

5
Attaque 77
Amigo
INTRO
Bm G A Bm
-------------------|-------------------|----------------------------|
---2--0---2-0--2-0-|---3--2---3-2--3-2-|----3--2---3-2--3-2-2-------|
-------------------|--0-----0----0-----|--2------2-----2------4-2-4-|
-4-----4-----4-----|-------------------|----------------------------|
-------------------|-------------------|----------------------------|
-------------------|-------------------|----------------------------|

si sol
Tu eres mi hermano del alma realmente un amigo
la re
que en todo camino por nada esta siempre conmigo
sol mi
aunque eres un hombre aun tienes el alma de un niño
fa# si
aquel que me da su amistad su respeto y cariño

si sol
recuerdo que juntos pasamos muy duros momentos
la re
y tu no cambiaste por fuerte que fueron los vientos
sol mi
es tu corazón una casa de puertas abiertas
fa# si
tu eres realmente el mas cierto en horas inciertas

(INTRO)

si sol
en ciertos momentos difíciles que hay en la vida
la re
buscamos a quien nos ayude a encontrar la salida
sol mi
y aquella palabra de fuerza y de fe que me has dado
fa# si
me da la certeza que siempre estuviste a mi lado

si sol
tu eres mi amigo del alma en toda jornada
la re
sonrisa y abrazo testigo a cada llegada
sol mi
me dices verdades tan grandes con frases abiertas
fa# si
tu eres realmente el mas cierto en horas inciertas

(INTRO)

si sol
no preciso ni decir todo esto que te digo x3
la si

6
pero es bueno asi sentir que eres tu mi gran amigo

después toca una sola vez estas notas:si-mi-fa#-si

si mi fa# si
ska ska skaraburare ska ska skaraburare ska ska skarabure skaraburayeahyeah
Axel Fernando
Tu Amor Por Siempre
Acordes:

A E E7 D F#m Bm B
e|--0-|-0-|-0-|-2-|-2-|-2-|-2-|
B|--2-|-0-|-3-|-3-|-2-|-3-|-4-|
G|--2-|-1-|-1-|-2-|-2-|-4-|-4-|
D|--2-|-2-|-2-|-0-|-4-|-4-|-4-|
A|--0-|-2-|-2-|-x-|-4-|-2-|-2-|
E|--0-|-0-|-0-|-x-|-2-|-x-|-2-|

INTRO:

A E
e|---0-0-0-0-0-0-0-0-|---0-0-0-0-0-0-0-0-|
B|---2-2-2-2-2-2-2-2-|---0-0-0-0-0-0-0-0-|
G|-------------------|-------------------|
D|---2-----2-----2---|---2-----2-----2---|
A|-------------------|-------------------|
E|-------------------|-------------------|

D
e|---0---------------------------------|
B|---3-3-3-3---3-3---3---3-2---2-2/3/2-|
G|-----------2-----2---2-----2---------|
D|---0-0-0-0---------0-----------------|
A|-------------------------------------|
E|-------------------------------------|

A E
e|---0-0-0-0-0-0-0-0-|---0-0-0-0-0-0-0-0-|
B|---2-2-2-2-2-2-2-2-|---0-0-0-0-0-0-0-0-|
G|-------------------|-------------------|
D|---2-----2-----2---|---2-----2-----2---|
A|-------------------|-------------------|
E|-------------------|-------------------|

D
e|---0---------------------------------------------|
B|---3-3-3-3---3-3---3---3-2---2-2--------2--2-2---|
G|-----------2-----2---2-----2-----2-------------2-|
D|---0-0-0-0---------0--------------------0--------|
A|-------------------------------------------------|
E|-------------------------------------------------|

7
A Bm
Estoy enamorado de tu voz y tu ternura

E D A
Tú eres mi color, mi poesía y mi música

A Bm
Estoy enamorado de tu mirada tan profunda

E D A
Que se mete en mi alma, la eleva y me inunda

A Bm
Estoy enamorado de tu vientre y de tu ombligo

E D A
De tus manos, tu lengua y hasta tus oídos

A Bm
Estoy enamorado de tu piel tan transparente

E D A
Y de tu boca directa que me habla de frente

F#m B E7
Y nun...ca de...jarás

F#m B E
De mi bo...ca es...cuchar decir que

A E D A
Yo quiero ser tu amor por siempre

A E D A
Yo quiero ser tu amor por siempre

A E D A
Yo quiero ser tu amor por siempre,
por siempre,por siempre...

A E D A
Se mi amor, por favor, por siempre

A Bm
Estoy enamorado de tus besos mariposa

E D A
De tus logros, tus sueños, de todo lo que tocas

A Bm
Estoy enamorado de las cosas que no veo

E D A
Tus secretos, tu historia, lo que guardas dentro

8
F#m B E
Y nun...ca de...jarás

F#m B E
De mi bo...ca es...cuchar decir que

A E D A
Yo quiero ser tu amor por siempre

A E D A
Yo quiero ser tu amor por siempre

A E D A
Yo quiero ser tu amor por siempre,
por siempre, por siempre...

A E D A
Se mi amor, por favor, por siempre

A E D A
Yo quiero ser tu amor por siempre,
por siempre, por siempre...

A E D A
Se mi amor, por favor, por siempre

A E
e|---0-0-0-0-0-0-0-0-|---0-0-0-0-0-0-0-0-|
B|---2-2-2-2-2-2-2-2-|---0-0-0-0-0-0-0-0-|
G|-------------------|-------------------|
D|---2-----2-----2---|---2-----2-----2---|
A|-------------------|-------------------|
E|-------------------|-------------------|
Tu amor...
D A
e|---0-----------------------|
B|---3-3-3-3---3-3---3---3-2-|
G|-----------2-----2---2---2-|
D|---0-0-0-0---------0-------|
A|---------------------------|
E|---------------------------|
por siempre...

9
Bacilos
Caraluna
Intro: Sol Re Lam Do - Sol Re Do Dom

Sol Re Lam Do
Quien dice que no duelen
Sol Re Do Dom
las huellas en la arena
Sol Re Lam
tu huella el mar se la llevó
Do Sol
pero la luna sigue allí
Re Do Dom
pero esa luna es mi condena

Sol Re Lam Do
Despacio en la mañana
Sol Re Do Dom
Ajitos por la noche
Sol Re Lam Do Sol
Las voces vivas del recuerdo se disfrazan de intuición
Re Do Dom
Y en una voz tu voz se esconde
Sol Re Do Dom
Y en una voz tu voz se esconde

Do Re Mim
Y yo se que tal vez
Do Re
Tu nunca escuches mi canción, yo se
Do Re Mim
Y yo se que tal vez
Do
Te siga usando así
Re
Robándote mi inspiración

CORO:
Sol Re Mim
Mientras siga viendo tu cara en la cara de la luna
Do Sol
Mientras siga escuchando tu voz
Re Do Dom
Entre las olas entre la espuma
Sol Sim7 Mim
Mientras tenga que cambiar la radio de estación
Do Sol Re Do Dom
Porque cada canción me hable de ti, de ti, de ti
Sol
Me hable de ti

Intro: Sol Re Lam Do - Sol Re Do Dom

10
Sol Re Lam Do
La vida se me esconde
Sol Re Do Dom
detrás de una promesa sin cumplir
Sol Re Lam
de donde nace alguna inspiración
Do Sol
de donde nace otra canción
Re Do Dom
y ya no se bien quien se esconde
Sol Re Do Dom
yo ya no se lo que se esconde

Do Re Mim
Y yo se que tal vez
Do Re
Tu nunca escuches mi canción, yo se
Do Re Mim
Y yo se que tal vez
Do
Te siga usando aquí
Re
Robándote mi inspiración

Coro:.....

Mim
Yo seguiré buscando
Do Mim Do
o seguiré escapando
Mim
Tal vez de ti
Do Mim
Tal vez de mi
Mim Re Do Dom
Yo seguiré buscándole una explicación
Sol Re
A esta canción......También (??)

Coro:.....

11
Bacilos
Tabaco y chanel

a) G D
Un olor a tabaco y chanel
Em C D
me recuerda el olor de su piel.
G D
Una mezcla de miel y café,
Em C D
me recuerda el sabor de sus besos.

b) G D
El color del final de la noche
Em C D C
me pregunta donde fui a parar, donde estas
D C
que esto solo se vive una vez
D G
donde fuiste a parar donde estás.

CORO
G D
Un olor a tabaco y chanel
C Em D-C
y una mezcla de miel y café
D
me preguntan por ella (ella)
C D
me preguntan por ella.

G D
Me preguntan también las estrellas
C Em D-C
me reclaman que vuelva por ella
D
ay! que vuelva por ella (ella)
C D
ay! que vuelva por ella.

a) G D
Una rosa que no floreció
Em C D
pero que el tiempo no la marchita.
G D
Una flor prometida a un amor, que no fue
Em C D
pero que sigue viva.

12
b) G D
Y otra vez el color del final, del final de la noche
Em C D C
me pregunta donde fui a parar
D C
que esto solo se vive una vez
D G
donde fuiste a parar donde estas.

CORO
G D
Un olor a tabaco y chanel
C Em D-C
y una mezcla de miel y café
D
me preguntan por ella (ella)
C D
me preguntan por ella.

G D
Me preguntan también las estrellas
C Em D-C
me reclaman que vuelva por ella
D
ay! que vuelva por ella (ella)
C D
ay! que vuelva por ella.

PUENTE
C Cm7
Pero fueron las mismas estrellas
G D
que un día, marcarón mis manos
C Cm7 G D
y apartaron la flor esa flor de mi vida, de mi vida...

CORO
G
No se va no se olvida,

no se va no se olvida
C
no se va no se olvida
D
nada, nada.

(se repite la última estrofa)

13
Bon Jovi
Livin on a Prayer

Am
Tommy used to work on the docks, Union’s been on strike he’s down on his luck
F G Am
It’s tough, so tough
Am
Gina works the diner all day working for her man, she brings home her pay
F G Am
For love - for love

PRECORO
She says:
F G Am
We’ve got to hold on to what we’ve got
F G Am
‘Cause it doesn’t make a difference if we make it or not
F G Am
We’ve got each other and that’s a lot
F G
For love - we’ll give it a shot

CORO
Am F G Am
Oh oh We’re half way there
am F G
Oh oh, livin’ on a prayer
am F G am
Take my hand and we’ll make it - I swear
am F G
Oh oh, livin’ on a prayer

Tommy got his six string in hock, now he’s holding in what he used to make it talk
So tough, it’s so tough
Gina dreams of running away, when she cries in the night Tommy whispers :
Baby it’s okay, someday

PRECORO
CORO
SOLO

We’ve got to hold on to what we’ve got


You live for the fight when it’s all that you’ve got

CORO

14
Bon Jovi
Wanted Dead Or Alive
Intro: C#5 . . . C#5 . . .
Riff: C#5/[E - D# - C# - B - G# - F# F# - E] x2 [B - C# - E - C#] x2
<- - - - - single notes - - - - ->
Verse 1:
C#5 . . . B . F#5 .
It’s all the same but all the names have changed
B . F#5 . F#5 - Eadd9 - C#5 .
Everyday it seems we’re was - ting a - way
C#5 . . . B . F#5 .
A - nother place where the faces are so cold
B . F#5 . F#5 - Eadd9 - C#5 .
Drive all night just to get - back - home

Chorus:
B . F#5 . Eadd9 . C#5 .
I’m a Cowboy on a steel horse I ride
B . F#5 . F#5 - Eadd9 - C#5 .
Wanted Dead or A - live
B . F#5 . F#5 - Eadd9 - C#5 .
Wanted Dead or A - live

Solo Progression:

C#5 . . . B . F#5 . B . F#5 . B . F#5 - Eadd9 - C#5 .

C#5 . . . B . F#5 . B . F#5 . B . F#5 - Eadd9 - C#5 . (to chorus)

Verse 2/3: (same chords as verse 1)


Sometimes I sleep, at times it’s not for days
And people I meet always go their sep’rate ways
At times you tell the day by the bottle that you drink
At times when you’re a -lone all you do is think

I walk these streets, a guitar on my back,


I play for keeps Cos I might not make it back
I’ve been everywhere and still I’m standin’ tall
I’ve seen a million faces . . . And I’ve rocked ‘em all

Chorus:
B . F#5 . Eadd9 . C#5 .
I’m a Cowboy on a steel horse I ride
B . F#5 . F#5 - Eadd9 - C#5 .
Wanted Dead or A - live
B . F#5 . F#5 - Eadd9 - C#5 .
Wanted Dead or A - live
B . F#5 . Eadd9 . C#5 .
I’m a Cowboy on a steel horse I ride
B . F#5 . F#5 - Eadd9 - C#5 .
Wanted Dead or A - live
B . F#5 . F#5 - Eadd9 - C#5 .
Wanted Dead or A - live

15
Bruce Dickinson
Tears Of The Dragon
E A D G B E
Am 0 0 2 2 1 0
C 0 3 2 0 1 0
Cadd9 0 3 2 0 3 0
G 3 2 0 0 0 3
Em 0 2 2 0 0 0
D x 0 0 2 3 2

[Intro]
Am
e ------------------------------------
------1-----0-----1-----0-----0h1---
--------2-----2-----2-----2---------
----2-----2-----2-----2-----2-------
--0---------------------------------
E ------------------------------------

C Cadd9
e --------------------------------------
------1-----0h1-----3-----1-----0-1---
--------0-------0-----0-----0---------
----2-----2-------2-----2-----2-------
--3-----------------------------------
E --------------------------------------

[Verse]
Am
For too long now
C Cadd9 Am
There were secrets in my mind

For too long now


C Cadd9 Am
There were things I should have said

In the darkness
C Cadd9 Am
I was stumbling for the door

To find a reason
C Cadd9 Am
To find the time, the place, the hour

Em
Waiting for the winter sun
G D
And the cold light of day
Am Em
The misty ghosts of childhood fears

16
G
The pressure is building
D
And I can’t stay away
[Chorus]
Em C G D
I throw myself into the sea
Em C
Release the wave
G D
Let it wash over me
Em C
To face the fear
G D
I once believed
Em C
The tears for the dragon
G D
For you and for me

Am
Where I was
C Cadd9 Am
I had wings that couldn’t fly

Where I was
C Cadd9 Am
I had tears I couldn’t cry

My emotions
C Cadd9 Am
Frozen in an icy lake

I couldn’t feel them


C Cadd9 Am
Until the ice began to break

Em
I have no power over this
G D
You know I’m afraid
Am Em
The walls I built are crumblig
G
The water is moving
D
I’m slipping away

[Chorus]
[Solo]

Am Em
Slowly I awake
G D Am
Slowly I rise
Em
The walls I built are crumblig
G
The water is moving

17
D
I’m slipping away

[Chorus] x2
[Outro]
Bryan Adams
Everything I Do

D D A G A
Look into my eyes, you will see what you mean to me
D A G
Search your heart, search your soul and when you find me there,
G D A
you’ll search no more

(A) Em D/F# Em
Don’t tell me it’s not worth trying for
D/F# Em D/F# Em
You can’t tell me it’s not worth dying for
D A Dsus
You know it’s true, everything I do, I do it for you

D A G A
Look into your heart, you will find, there’s nothing there to hide
(A) D A G D A
Take me as I am, take my life, I would give it all, I would sacrifice

(A) Em D Em D/E
Don’t tell me it’s not worth fighting for
(D/E) Em D Em
I can’t help it, there’s nothing I want more
(Em) D A D Dsus D
You know it’s true, everything I do, I do it for you

D C F C G
There’s no love like your love, and no other could give more love
D A E A
There’s no where unless you’re there, all the time, all the way

Solo
G D Dsus D G D Dsus D

D Em A
Oh you can’t tell me it’s not worth trying for
Em A
I can’t help it there’s nothing I want more
G D A G
Yeah I would fight for you, I’d lie for you, walk the wire for you
Gm
Yeah I’d die for you
D Asus A G G6 D
You know it’s true, everything I do, oh, I do it for you

18
Buddy Richard
Tu cariño se me va
Lam Fam
A)Tu cariño se me va
Rem Mim Lam
se me va como el agua entre los dedos
Fa
y no lo puedo evitar
Rem Mim Fa
a pesar que de pena yo me muero
Mi Fa
B)era dueño de tu amor
Mi Fa Sol La
es mi culpa este dolor
La Do#m
C)No me quites este amor
Fa#m
reconozco mi error
Mi La
se me parte el corazon

C)sin tu amor no vivire


y por siempre llorare
recordando tu querer

A)tu sonrisa se me va
ya no esta
aunque trate de buscarla

B)era dueño de tu amor


es mi culpa este dolor

C)no me quites este amor


reconozco mi error
se me parte el corazon

C)sin tu amor no vivire


y por siempre llorare
recordando tu querer

A)tu cariño se me va
se me va
como el agua entre los dedos
y no lo puedo evitar
a pesar
que de pena no me muero

punteo

A):/5-7-8-7-5 8-8 8-8-8 5-7-8-7-5 8-8-7/:


B):/1-3-5-3-1-1-0 1-3-5-3-1-3-1-0/:
se toca solo la primera cuerda

19
Café Quijano
La Lola
(Estas dos primeras estrofas suena insistentemente el bajo en LA)

Se llama Lola y tiene historia,

aunque más que historia...


Am (rasgueado)
sea un poema.

Su vida entera pasó buscando,

noches de gloria...
(Em-G-G#) Am(V) x6
como alma en pena.

(Em-G-G#)-Am(V)

Am E
Detrás de su manto de fría dama
Dm - E Am
tenía escondidas tremendas armas.
E7
Para las batallas del cara a cara
Dm Am (Em-G-G#)-Am
que con ventaja muy bien libraba.

Am C
Le fué muy mal, de mano en mano,
E7
de boca en boca, de cama en cama.
C
Como una muñeca que se desgasta,
E7 Am
se queda vieja y la pena arrastra.

C
Óyeme mi Lola, mi tierna Lola, |
E7 Am |
tu triste vida es tu triste historia. | ESTRIBILLO
C |
Pero que manera de caminar, |
E7 -(Dm) Am |
mira que soberbia en su mirar. |
C |
Óyeme mi Lola, mi tierna Lola, |
E7 Am |
tu triste vida es tu triste historia. |
C |
Pero que manera de caminar, |
E7 -(Dm) Am |

20
mira que soberbia en su mirar. |
C |
Óyeme mi Lola, mi tierna Lola, |
E7 Am |
tu triste vida es tu triste historia. |
Punteo: (Am-C-E7-Am) x4

Fue mujer serena hasta en el instante


de entregarse presta a sus amantes.
Es tiempo de llanto, es tiempo de duda,
de nostalgia y de su locura.

Tienes el consuelo de saberte llena


de cariño limpio y amor sincero,
porque nadie supo robar de tus besos
eso que te sobra y que nadie añora.

ESTRIBILLO

(se para la música y vuelve a sonar


únicamente el bajo en LA)

Es el tiempo de la arruga que no perdona


es el tiempo de la fruta...
Em-G-G#-Am
y la pintura.

21
Cat Stevens
Father and Son
INTRO: G C riff: (E----4----6--) rpt 3 times
(B--2----2----)

G D C Am7
It’s not time to make a change, just relax and take it easy
G Em
You’re still young that’s your fault
Am D
there’s so much you have to know
G D C Am7
Find a girl, settle down, if you want to, you can marry
G Em Am C D
Look at me, I am old, but I’m happy
G Bm7 C Am7
I was once like you are now, and I know that its not easy
G Em Am C D
to be calm, when you’ve found something going on
G Bm7 C Am7
But take your time, think a lot, why think of everything you’ve got
G Em D G
For you will still be here tomorrow, but your dreams may not

G-C riff G-C riff

CHORUS #1:
G Bm C Am7
How can I try to explain? when I do he turns away again
G Em Am C D
it’s always been the same, same old story
G Bm C Am7
>From the moment I could talk I was ordered to listen
G Em D G
now there’s a way and I know I have to go away
D C G G-C riff G-C riff
and I know I have to go

(away) (away)
It’s not time to make a change, just sit down and take it slowly
(I) (know) (I have)
You’re still young, that’s your fault, there’s so much you have
(to make this)
to go through
(decision) (alone)
Find a girl, settle down, if you want to you can marry
(no)
Look at me, I am old, but I’m happy

CHORUS #2:
(stay) (stay, stay)
All the times that I cried, keeping all the things I knew inside
(why?) (must) (you go and make this de-
It’s hard, but it’s harder to ignore it

22
cision) (alone?)
If they were right, I’d agree, but it’s them they know, not me
Now there’s a way, and I know that I have to go away
I know I have to go
The Cranberries
Zombie
Intro

Chords : Em C G D
Strum : * *^* *^* ** ^* *^* ** * *^* *^* ** ^* *^* **

Chords with Destortion : Em C G D (Stroke x8 on 16th’s )

(Rythm and Lead plays the destorted chords the 1st time and then
the lead start playing the riffs on the second run)

Riff1
Em C G Em
e ||---------------|---------------|---------------|--------------|
B ||---------------|---------------|---------------|--------------|
G ||---------------|---------------|---------------|--------------|
D ||-2-------2-2---|-2-2-----2-2---|-------------0-|-2----2---2---|
A ||-------2-------|-----3-3-----3-|---2---2---2---|---2----2-----|
E ||----0--------0-|---------------|-3---3---3-----|-----0------0-|

Riff2
G
e ||--9h11--7h9--5h7--3h5p3h5--1-0:----||
B ||-----------------------------------||
G ||-----------------------------------||
D ||-----------------------------------||
A ||-----------------------------------||
E ||-----------------------------------||

Verse:1

Em C G D
Anot-her heading slowly, charging slowly, taking ai--m
Em C G D
And the violence, causes silence, who are we mista-ken
Em C
May you see, it’s not me, it’s not my family
G
In your head
In your head
D
They are fight-ing
Em
With their tanks and their bombs
C
And their bombs and their guns
G
In your head
In your head
D
They are cry-ing

23
Chorus (x2)
Em
In your hea--d
C
In your hea-ead
G
Zombie
Zombie
D
Zombie-bie-bie-bie

Post Chorus 1

Oh
(Em)
Du du du du
(C)
Du du du du
(G)
Du du du du
(D)
Du du du du

Chords: Em C G D
Riff2

Verse:2
Em C G D
A-nother mo-thers broken heart’s taking ov--er
Em C G D
And the violence, causes silence, we must be mista-ken
Em C
It’s the same old thing, since 1916
G
In your head
In your head
D
They’r still figh-ting
Em
With their tanks and their bombs
C
And their bombs and their guns
G
In your head
In your head
D
They are dy-ing

Chorus......

Post Chorus 2

(Em)

24
Oh Oh Oh Oh
(C)
Oh Oh Oh
(G) (D)
Yeah-O-yahahi-hahh
Outro

Chords: Em C G D (Heavy Distortoin)


Em C G D (A bit Slower and softer)
Em C G (End it up stump stroke on G)

~~~~~~~ ~~~~~~~~~~ ~~~~~~~~~~~~~~~~~


~ Key ~ ~ Chords ~ ~ 0: Play clean ~
~~~~~~~ ~~~~~~~~~~ ~ X: Don’t play ~
x Scratch ~~~~~~~~~~~~~~~~~
: Let ring -654321-
/ Slide Em 022000
b Bend Eb XX1343
br Bend and release C X32010
h Hammer G 320003
p Pick D xx0232
pl_s Pleck scratch
[_] Palm mute
... Let ring
* Strum down
^ Strum up
() Tips & Hints

25
Cristina y los Subterraneos
Mil Pedazos
G C Am
Cuatrocientos golpes contra la pared
G C Am
han sido bastantes para aprender
G C Am
a encajar con gracia y caer de pie,
G C Am
esconderlo dentro y llorar despu,s.

G C Am
Por eso cuando dijo que no me quer¡a
G C Am
apret, los dientes, dije que me ir¡a aaah.

ESTRIBILLO:
G C Am
Mil pedazos de mi coraz¢n
G D C
volaron por toda la habitaci¢n.

Se quedaron todos rotos por el suelo,


uno fue a clavarse en su chaqueta de cuero.
Los cog¡ deprisa y me los guard,
por si hac¡an falta para otra vez.

En medio de mi pecho qued¢ un agujero,


porque no se viera puse mi sombrero oooh.

ESTRIBILLO (x2)

PUNTEO

Dej, s¢lo un trocito dentro de su bota


para que le duela si se va con otra aaah.

ESTRIBILLO

G D Am
Por toda la habitaci¢n,
G D Am
por toda la habitaci¢n,
G D Am
por toda la habitaci¢n...

26
Cristina y los Subterraneos
Voy en un coche

LA MI SOL RE
Dile a papá que me voy de la ciudad
LA MI SOL RE
Dile a los chicos que no volveré más

LA MI SOL RE
Voy en un coche, que robé anoche a un chico listo que iba a ligar
LA MI SOL RE
Es un Spire con dos asientos, coge doscientos sin apretar

Dile a papá que me voy de la ciudad


Dile a los chicos que no volveré más

En la autopista las rayas bailan como coristas de cabaret


Las patrullas de carretera pintan panteras en el arcén

FA SOL DO
Quema los rascacielos, quema los postes de la luz
SOL
Y los camiones de bomberos
FA SOL
Quema los tribunales, quema todos los bares
MI
Por los que no voy a volver, aya yay

Dile a papá que me voy de la ciudad


Dile a los chicos que no volveré más

Los camioneros cuelgan sonrisas del parabrisas cuando me ven


Soy la princesa de la autopista y hasta los polis besan mis pies

Quiere llegar muy lejos, con su coche hasta el final


Donde nadie da consejos
Pasando la frontera con una calavera
Tatuada en el cristal, aya yay

SOLO Coro

Voy en un coche, quiero de noche a un tipo listo que iba a ligar


Dije mi amor, voy por cigarrillos y una vez dentro le metí gas

El muy cretino me tiró un beso por el espejo retrovisor


Ahora la luna pasa la noche con el ruido de mi motor.

Los tipos duros pasan apuros cuando se cruzan por mi camino


Y en el cielo todos los santos son de mi bando y rezan por mí

Dile a papá que me voy de la ciudad


Dile a los chicos que no volveré más
Dile a papá que me voy de la ciudad
Dile a los chicos que no volveré más

27
Dile a papá que me voy de la ciudad
Dile a los chicos que no volveré más
Deep Purple Guess I’ll always be
A soldier of fortune
Soldier of Fortune
Eb F
Key: Gm Yes, I can hear the sound
Bb Eb Bass Eb-D
Intro: Gm / F / Eb of a windmill going round
Cm Dm
Gm I guess I’ll always be
I have often told you stories Gm
a soldier of fortune.
I have often told you stories Eb F
F I guess I’ll always be
about the way G (major chord)
Gm a soldier of foRtune.
I lived the life of a drifter
Dm
waiting for the day
Gm
When I’d take your hand and sing you songs
F
Then maybe you would say
Gm
Come lay with me and love me
Dm Bass D-C-Bb
And I would surely stay

Bb C Gm Bass G-F-Eb
But I feel I’m growing older
F Bb
And the songs that I have sung
D Gm
Echo in the distance
F
Like the sound
Bb Eb Bass Eb-D
Of a windmill going round
Cm Dm
Guess I’ll always be
Gm
A soldier of fortune.

Solo: Gm / C / Gm / C /
Gm / Bb / C / Gm

Many times I’ve been a traveller


I looked for something new
In days of old when nights were cold
I wandered without you
But those days I thought my eyes
Had seen you standing near
Though blindness is confusing
It shows that you’re not here.

28
Now I feel I’m going older
And the songs that I have sung
Echo in the distance
Like the sound
Of a windmill going round
Diego Torres C¡ :
C9¡:
03201x
03203x
Color Esperanza C9 : 032033
E9 : 022033
E9¡: 022030
E9%: 02103x
“PARTE 1: LENTA(todo arpegio)” G11: 055030
B11: 044020
F3 : 587565
InTrO 1: D# : 365343

---------10--------10---------10-7-------------------
-----8------8--8------8----8-------8-----10----------
-----9-9-------9-9---------7---------7--9------------
----10---------9-------------------------------------
-----------------------------------------------------
-----------------------------------------------------

G Bm7
Se que hay en tus ojos
B7 Em
con solo mirar
C¡ C9¡
Que estas cansado de andar
G
y de andar
-----------
-----3-----
----0-0----
-----------
-----------
--3--------

E$ Am
y caminar, girando siempre
-----------
-----3-----
----0-0----
-----------
-----------
--2--------

C D
en un lugar

G Bm7
Se que las ventanas
B7 Em
se pueden abrir
C¡ C9¡ G
cambiar el aire depende de ti
-----------
-----3-----

29
----0-0----
-----------
-----------
--3--------
E$ Am C¡ : 03201x
te ayudará, vale la pena C9¡: 03203x
----------- C9 : 032033
-----3----- E9 : 022033
----0-0---- E9¡: 022030
----------- E9%: 02103x
----------- G11: 055030
--2-------- B11: 044020
F3 : 587565
C D D# : 365343
una vez mas

EnTrAdA Al CoRo:

---3-5-------
--3--7-------
-------------
-------------
-------------
-------------

CoRo:

G
Saber que se puede
D Em
querer que se pueda
C
quitarse los miedos
Am D
sacarlos afuera
G
Pintarse la cara
D Em
color esperanza
C
tentar al futuro
Am D
con el corazón

InTeRmEdIo: G(1t)-Bm7(1t)-C(1/2t)-Am(1/2t)-D(un rasgueo)


1t : un tiempo
1/2t : medio tiempo

G Bm7
Es mejor perderse
B7 Em
que nunca embarcar

mejor tentarse
C9¡ G
a dejar de intentar
-----------
-----3-----

30
----0-0----
-----------
-----------
--3--------
E$ C¡ : 03201x
aunque ya ves... C9¡: 03203x
----------- C9 : 032033
-----3----- E9 : 022033
----0-0---- E9¡: 022030
----------- E9%: 02103x
----------- G11: 055030
--2-------- B11: 044020
F3 : 587565
Am C D D# : 365343
que no estan fácil empezar

G Bm7
Sé que lo imposible
B7 Em
se puede lograr

que la tristeza
C9¡ G
algún día se irá
-----------
-----3-----
----0-0----
-----------
-----------
--3--------
E$
y así será...
-----------
-----3-----
----0-0----
-----------
-----------
--3--------
Am C D
la vida cambia y cambiará

C9 E9 G
Sentirás que el alma vuela
C Am D
Por cantar una vez más.

(Luego de la percusión empieza la parte 2)

“PARTE 2: RAPIDA(todo rasgueo)”

CoRo:
G
Saber que se puede
D Em
querer que se pueda
C

31
quitarse los miedos
Am D
sacarlos afuera
G
Pintarse la cara
D Em C¡ : 03201x
color esperanza C9¡: 03203x
C C9 : 032033
tentar al futuro E9 : 022033
Am D E9¡: 022030
con el corazón (x2) E9%: 02103x
G11: 055030
B11: 044020
E9¡ E9% G11(un rasgueo x nota) F3 : 587565
Vale mas poder brillar D# : 365343
B11 C C D D(un rasgueo x nota)
que solo buscar ver el sooooool

InTrO 2: A#(1/2t)-F3(1/2t)-Gm(1t)-D#(1/2t)-Cm(1/2t)-F3(1t)
1t : un tiempo
1/2t :medio tiempo

A#
Pintarse la cara
F3 Gm
color esperanza
D#
tentar al futuro
Cm F3
con el corazón

(Esta parte es solo percusion, pero ahi les pongo las notas
para q acompañen)

A#
Saber que se pode,
F3 Gm
querer que se possa,
D#
tirar-se os medos
Cm F3
sacá-los afora.
A#
Pintar-se a cara
F3 Gm
cor esperança,
D#
tentar ao futuro
Cm F3
com o coração.

A# F3 Gm
Saber que se pueeeeede
D# Cm F3
querer que se pueeeeeda
A#
Pintarse la cara
F3 Gm

32
color esperanza
D#(un rasgueo)
tentar al futuro
Cm F3 A# (un rasgueo x nota)
con el corazóooon
Disney
Hakuna matata
F C
Hakuna Matata... una forma de ser
D G7
Hakuna Matata... nada que temer.

E Am C F D
Sin preocuparse es como hay que vivir
C G C
a vivir así, ya que aprendí.. Hakuna matata.

Intervalo 1: C Dm C G Dm Am G

Bb F C
Cuando un joven era el
Bb F C
Cuando un joven era yo (Muy bien. Gracias)

Eb F
Sintió que su aroma, le dio mucha fama
C G
vacío la sabana después de comer
Bb
un alma sensible soy,
F C
aunque de cuero cubierto estoy.

E G
Y a mis amigos el viento se los llevo
G7sus C F C
que vergüenza, (que vergüenza)
G C G
mi nombre cambio, (pero ese nombre no te queda)
F Bb
y mucho sufrí yo, (ay como sufrió)
Eb Bb
cada ves que yo... (Pumba, no en frente de los niños... Ah, perdón)

C F C
Hakuna Matata... un forma de ser
F D G
Hakuna Matata... nada que temer.

E Am C F D
Sin preocuparse es como hay que vivir
C G C
a vivir así, ya que aprendí.. Hakuna matata.

Intervalo 2: C F G C C F G

C F G F
Hakuna matata, Hakuna matata, Hakuna matata, Hakuna matata,
C G
Hakuna matata, Hakuna matata, Hakuna matata.

E Am C F D

33
Hakuna... sin preocuparse es como hay que vivir
C G7 E Am
a vivir así, ya que aprendí, Hakuna matata.

C F G E Am C F G C F G
Hakuna matata ...
Dogma
Runaway

Esta en un excelente remake de la canción de DEl Shannon


pero en versión Punk! Esta va para la mendiga de Nadya mi
ex-enamorada a quien no le guardo rencores y a
quien mi cama siempre estará dispuesta a recibir.

verso 1 (este es el ùnico verso):

Am G
As I walk along the street I wonder what went wrong
F E
With our love, a love that was so strong
Am G
And as I still walk on, I think of the things we’ve done
F E
Together, while our hearts were young

coros:

A
I’m a walkin’ in the rain
F#m
Tears are fallin’ and I feel the pain
A
Wishin’ you were here by me
F#m
To end this misery
A
And I wonder
F#m
I wa-wa-wa-wa-wonder
A
Why
F#m
Ah-why-why-why-why-why she ran away
D E
And I wonder where she will stay
A D A E
My little runaway, run-run-run-run-runaway

[solo 1,tocado sobre el verso]

[repetir coro]

[solo 2 tocado sobre el verso de nuevo]

[repetir coros a excepción del la ùltima linea]

finaliza en:

A D A
My little runaway, a-run-run-run-run-runaway

34
D A
A-run-run-run-run-runaway
Eagles E A D G B e
+-----------+
Hotel California Bm 2 2 4 4 3 2
Bm7 2 2 4 2 3 2
F# 2 4 4 3 2 2
Bm F# A 0 0 2 2 2 0
On a dark desert highway, cool wind in my hair E 0 2 2 1 0 0
A E G 3 2 0 0 0 3
Warm smell of colitas rising up through the air D x 0 0 2 3 2
G D Em 0 2 2 0 0 0
Up ahead in the distance, I saw a shimmering light +-----------+
Em
My head grew heavy and my sight grew dim
F#
I had to stop for the night

Bm F#
There she stood in the doorway; I heard the mission bell
A E
And I was thinking to myself this could be heaven or this could be hell
G D
Then she lit up a candle, and she showed me the way
Em F#
There were voices down the corridor, I thought I heard them say

CHORUS
------
G D
Welcome to the Hotel California.
Em Bm7
Such a lovely place, such a lovely face
G D
(1)Plenty of room at the Hotel California
(2)They livin’ it up at the Hotel California
Em F#
(1)Any time of year (any time of year) you can find it here
(2)What a nice surprise (what a nice surprise) bring your alibis

Her mind is Tiffany twisted, she got the Mercedes bends


She got a lot of pretty, pretty boys that she calls friends
How they dance in the courtyard, sweet summer sweat
Some dance to remember, some dance to forget

So I called up the captain; “Please bring me my wine.”


“We haven’t had that spirit here since nineteen sixty-nine”
And still those voices are calling from far away
Wake you up in the middle of the night, just to hear them say

CHORUS (with ending 2)

Mirrors on the ceiling, the pink champagne on ice


And she said “We are all just prisoners here, of our own device”
And in the master’s chambers, they gathered for the feast
They stab it with their steely knives, but they just can’t kill the beast

35
Last thing I remember, I was running for the door
I had to find the passage back to the place I was before
“Relax” said the nightman, “We are programmed to receive”
“You can check out anytime you like, but you can never leave”
(Instrumental and fade)
Eduardo Gatti
los Momentos

Lam Fa
Tu silueta va caminando
Do Sol
con el alma triste y dormida
Rem Lam
ya la aurora no es nada nuevo
Do Sol
pa´ tus ojos grandes y pa´ tu frente
Rem Lam
ya el cielo y su estrellas
Do
se quedaro mudos lejanos
Sol Lam
y muertos pa´ tu mente ajena

Lam Fa
Nos hablaron una vez cuando niños
Do Sol
cuando la vida se muestra entera
Rem Lam
que el futuro que cuando grandes
Do Sol
ahi murieron ya los momentos
Rem Lam
sembraron asi sus semilla
Do
y tuvimos miedo temblamos
Sol Lam
y en esto se nos fuue la vida

(mismos acores)
Lalala.......

Lam Fa
Cada uno aferrado a sus dioses
Do Sol
producto de toda una historia
Rem Lam
los modelan y los destruyen
Do Sol
y segun eso ordenan sus vidas
Rem Lam
en la frente le ponen monedas
Dom
en sus largas manos le cuelgan
Sol Lam
candados, letrero y rejas.

(mismos acores)
Lalalalala.......

36
Enanitos Verdes A Amaj7
Y ayer quizas pensando en tu foto
Aún Sigo Cantando A7 D
por la calle te encontre andando
Dm A
que poco ha cambiado nuestra onda
A Amaj7
D E D A
En aquel cajon esta tu foto
solo cambiaron un poco nuestros cuerpos.
A7 D
llenandose de tierra
Dm A
D Cm#
hace tanto que no la veo
Espero que el tiempo ahora no borre
B7 E D E
Fm# Cm# Cm
como a vos, como a vos.
a esta gente que tanto amo (todos ustedes)
Bm Dm A
A Amaj7
Por que sin ustedes no valgo nada
Te acordas que tiempos aquellos
D E D
A7 D
Su alma es mi alimento.
que tiempos aquellos
Dm A
[E-C-D-A#7-Bm-E-D-A]
en donde todo era un buen motivo
D E D
para decir te quiero.

A Amaj7
Que le habra pasado a la vida
A7 D
que sin quererlo ya ni me acuerdo
Dm A
cuando con mi viejo iba a la cancha
B7 E D E
a ver aquel atletico.

A Amaj7
Te acordas del flaco Espinetta
A7 D
cuando cantaba, todas las hojas son del viento
Dm A
hay toda nuestra filosofia
D E A
que era solo ser rockero.

D Cm#
Pero como han cambiado los tiempos
Fm# Cm# Cm
todos luchan por mantener sus puestos
Bm Dm A
hay muchos que ahora son Ingenieros
D E A
que pocos quedaron rockeros.

D Cm#
Pero yo aun sigo cantando
Fm# Cm# Cm
y lo voy a seguir haciendo
Bm Dm A
una leccion me dio la vida

37
D E D
tienes que hacer lo que el corazon diga.
Enanitos Verdes
el Extraño del pelo largo

Intro: Dsus4, D......A7

D
Vagando por las calles
E
mirando a la gente pasar
G A
el extraño del pelo largo
D A7
sin preocupaciones va.

D
Hay fuego en su mirada
E
y un poco de insatisfaccion
C B7
por esa mujer, que siempre quiso
Em Am
y nunca pudo amar.
C D7
Jamas, jamas.

F#7
Inutil es que trates de entender
Bm
o interpretar quizas sus actos.
E D
El es un rey extraño,
C A
un rey de pelo largo.

Hay fuego en su mirada.....

D
Vagando por las calles
E
mirando a la gente pasar
G A
el extraño del pelo largo
C B7
el extraño del pelo largo
Em A
el extraño del pelo largo
Dsus4 D
sin preocupaciones va.

38
Enanitos Verdes
La Muralla Verde

Am G
Estoy parado sobre la muralla que divide
Am G
todo lo que fue y lo que sera
Am G
estoy mirando como aquellas viejas ilusiones
Am G
pasando la muralla se hacen realidad

Em Am
Pero como el amor de ayer
Em Am
Pero como el amor de ayer
Em Am G
volvio a desaperecer, desaparecer

Am G
Estoy parado sobre la muralla que divide
Am G
todo lo que ame de lo que amare
Am G
estoy mirando como mis heridas se cerraron
Am G
y como se desangra un nuevo corazon

Em Am
Pero como el amor de ayer
Em Am
Pero como el amor de ayer
Em Am G
volvio a desaperecer, desaparecer

Am G
Estoy parado sobre la muralla que divide
Am G
todo lo que fue de lo que sera
Am G
estoy mirando como aquella vieja sicodelia
Am G
estoy fijandome como viene y va

Em Am
Pero como el amor de ayer
Em Am
Pero como el amor de ayer
Em Am G
volvio a desaperecer, desaparecer

FINAL C#m F# (9)

39
Enanitos Verdes
Lamento Boliviano

Mim
Me quieren agitar me incitan a gritar
Sim
soy como una roca, palabras no me tocan
Lam
adentro hay un volcán que pronto va a estallar
Mim Si7
yo quiero estar tranquilo.

Mim
Es mi situación una desolación
Sim
soy como un lamento, lamento boliviano
Lam
que un día empezó y no va a terminar
Mim Si7
ya nadie hace daño. Simbologia:
-12h14- hammer on
-14p12- pull off
-12s13- slide
-(12)-- nota fantasma
Mim Sim Lam Mim Si7 -12~~-- mantener sonando la nota, NO es un vibrato
-12v~~- vibrato
1.-)Uoh-yoh-yoh-yoh-oh-oh eh-eh-eh-eh-yeh -12br-- bend and release (estirar y soltar)
-12b~r- lo mismo pero mas lento
-12b~~- solo estirar, claro

Ahora el solo principal. Parecer ser que el segundo acorde del circulo
Mim Sim es Sim y no Sim7.

2.-)Y (yo ya) estoy aquí borracho y loco SOLO


Mim Sim
Lam Si e|--------------------------------|---------------------------------|
y mi corazón idiota siempre brillara B|--------7-8~~---7---------------|----7h8v~------------------------|
G|------9-----------9-------------|---7--------9p7-10s11~-----------|
Mim Si D|---7h9--------------9~~---------|--9---------------------7~~h9p7--|
A|--------------------------------|---------------------------------|
y yo te amaré, te amaré por siempre E|--------------------------------|---------------------------------|

Lam Lam7 Mim


nena no te peines en la cama |---------12------------------------|--------------------------------|
|------------15b~r--15--------------|--------------------------------|
Mim Si7 |-14s15s14------------14p12 14brbr~-|-16p14p12h14v~~~--12s11h12~~p11-|
|-----------------------------------|--------------------------------|
que los viajantes se van a atrasar |-----------------------------------|--------------------------------|
|-*rapido*--------------------------|------------------------*lento*-|

Si7 Mim
|----------------------||--------------------------------------------|
SOLO |-------------17-19b~~~-19p17p15-19p17p15-19b~~-15br-----------------|
|-----------(19)-------||---------------------------14h15p14p12-14br~|
ESTAS SON LAS NOTAS: |----------------------||--------------------------------------------|
|-14p12h14~------------||--------------------------------------------|
mim-sim-lam7-mim-si7 |----------------------||--------------------------*-----rapido----*-|
mim-sim-lam7-mim-si7 Sim
|--------------------------------------------------------|
|--------------------------------------------------------|
|----12-14-14brh12-14b~r--12s11h12p11h12~----------------|
|--14---------------------------------------12-----------|
Mim Sim Lam Mim Si7 |-----------------------------------------14--14p12~~s\--|
1.-)Uoh-yoh-yoh-yoh-oh-oh eh-eh-eh-eh-yeh |----------------------------------*-casi-inaudible-*----|

Lam7 Mim
|--------14--14h15~--(12)s14---16b~~--|--14s15----13s14-----11s12----|
|-------------------------------------|-------14-------12--------10--|
|--12h14~-----------------------------|------------------------------|
Mim Sim |-------------------------------------|------------------------------|
2.-)Y (yo ya) estoy aquí borracho y loco |-------------------------------------|------------------------------|
|-------------------------------------|------------------------------|
Lam Si
Si7
y mi corazón idiota siempre brillara |--------------------------------||
|--12p10v~~~~~-------------------||
Mim Si |----------------12--------------||

40
y yo te amaré, te amaré por siempre |------------------14~~~---------||
|--------------------------------||
Lam |--------------------------------||

nena no te peines en la cama


Mim Si7
que los viajantes se van a atrasar
Mim Sim
2.-)Y (yo ya) estoy aquí borracho y loco
Lam Si
y mi corazón idiota siempre brillara
Mim Si
y yo te amaré, te amaré por siempre
Lam
nena no te peines en la cama
Mim Si7
que los viajantes se van a atrasar

FINAL
Lo que esta sobre los asteriscos va con distorsión media

Mim
e|-----------------------------------------------------|
B|--7h8p7---------------------7h8p7--------------------|
G|--------9-7-9~~-------------------9-7-9~~------------|
D|-----------------------------------------------------|
A|------------------7br7b~--------------------7br7b~---|
E|------------------------7-------------------------7--|
****** ******
Mi7
e|-----------------------------------------------------|--7--|
B|--------------------------------8-7------------------|--7--|
G|------5-------------7---------------9-7-9~~----------|--8--|
D|-----5--6s7~~------7--8s9~~--------------------------|--7--|
A|--5h7-----------7h9--------------------------7br7b~--|--9--|
E|-----------------------------------------------------|--7--|
************************** *****

41
Enanitos Verdes
Te ví en un trén

INTRO
G C
e----------------------------------------|
B-----------15~~--13-12------------------|
G--12----12-------------12-12h14~-12~~---| X 2
D-----12---------------------------------|
A----------------------------------------|
E----------------------------------------|

Em Bm
Yo te vi en un tren
C G
preocupada de más
A
quise ayudarte
D
pero ya no estabas más.

Em Bm
Me colgué del vagón
C G
que ya empezaba a correr,
A D
entusiasmado como la primera vez.

CORO 1 Em A
Y al fin te encontré
G C
y al fin te encontre
A D
y no pude ni siquiera decir hola

INTRO G C
e----------------------------------------|
B-----------15~~--13-12------------------|
G--12----12-------------12-12h14~-12~~---| X 2
D-----12---------------------------------|
A----------------------------------------|
E----------------------------------------|

Em Bm
Intenté compensar
C G
preguntarte la edad
A
cómo te llamabas
D
en qué estación pensabas bajar.

Em Bm

42
Y no supe que decir
C G
me engañaba al hablar
A D
alucinado sin ninguna razón.
CORO 2
Em A
y yo te vi en un tren
G C
yo te vi en un tren
A D
y no pude ni siquiera decir hola

SOLO
Em A Em C D Em A Em C D Em
e---------------------------------------------------------------------------------------------|
B-8---8---8--8---8---8--8---8---8---8--8~-------8----8----8--8---8---8--8----8----8--8~-7~----|
G---7---7------9---9------7---7---7-------9-11~---10---10------9---9------10---10----------9~-|
D---------------------------------------------------------------------------------------------|
A---------------------------------------------------------------------------------------------|
E---------------------------------------------------------------------------------------------|

CORO 2
Em A
y yo te vi en un tren
G C
yo te vi en un tren
A D
y no pude ni siquiera decir hola

RIFF
G C A C
e----------------------------------------------------------------------------------------|
B-----------15~~--13-12------------------------------------------------------------------|
G--12----12-------------12-12h14~-12~~---12----12-14~--12-12-12-14-16-17-12~~---12----12-|
D-----12------------------------------------12-------------------------------------12----|
A----------------------------------------------------------------------------------------|
E----------------------------------------------------------------------------------------|

PUENTE
Em A
Yo te vi en un tren, yo te vi en un tre-e-en!
Em A
Yo te vi en un tren, yo te vi en un trenyo te vi en un tre-e-en!
Em A
Yo te vi en un tren, yo te vi en un trenyo te vi en un tre-e-en!
Em A
Yo te vi en un tren, yo te vi en un trenyo te vi en un tre-e-en!

OUTRO
e--------------9----9-10~-----9-10~----9-10-10~~---x-0~~----|
B--10---10-10~---10--------10-------10-------------x-2~~----|
G-----9--------------------------------------------3-2~~----|
D--------------------------------------------------2-2~~----|
A--------------------------------------------------2-0~~----|
E--------------------------------------------------x-x------|

43
Enanitos Verdes C
no se pueden manejar
Tus viejas cartas F
y cuando nos atrapan
C
INTRO [G Em Am D] no podemos escapar
Am Am7 D
G y es asi, nuestro corazon sufre
Estuve leyendo
Em G
tus viejas cartas Y sigue y sigue
Am Em
donde me hablabas dando vueltas y vueltas
D Am D
de amor la loca rueda de la vida
G G Em
usando palabras y sigue rodando en mi cabeza
Em Am D
querias decirme el enigma cautivante de tu voz
Am
ya no puedo estar C D Em
D Y donde quedo ahora
sin vos C D Em
esa hermosa ilusion
C D Em C D Em
Y donde quedo ahora de regalarte a vos
C D Em F Em
esa hermosa ilusion lo mejor de mi amor
C D Em F Em
de regalarte a vos lo mejor de mi amor
F D F Em
lo mejor de mi amor lo mejor de mi amor
D C
G de mi amor
Creimos que todo
Em
habia cambiado
Am
no habia razon
D
ya para estar mal
G
pero el otono
Em
golpeo nuestra puerta
Am
y como una hoja
D
nuestro amor murio

C D Em
Y donde quedo ahora
C D Em
esa hermosa ilusion
C D Em
de regalarte a vos

44
F D
lo mejor de mi amor

F
A veces los sentimientos
Enrique Chilote Campos
Corazón de escarcha
**USAR CEJILLO EN EL SEGUNDO TRASTE

Intro: LAm REm SOL7 DO REm LAm FA MI7

1º ESTROFA:
LAm REm
Corazón de escarcha se fue de la estancia,
SOL7 DO
fría la mirada, frío el corazón;
REm LAm
toda la peonada sintió al ovejero,
FA MI7
al que más quería la hija del patrón.

LAm REm
Niña tan bonita como las estrellas,
SOL7 DO
sólo en los jardines se pudo encontrar;
REm LAm
sus antepasados, los viejos loberos,
FA MI7 LA
mecieron su cuna, la luna y el mar.

CORO:
LA MI7
Sólo por quererla, sólo por mirarla,
LA
lo echó una mañana furioso el patrón;
FA#7 SIm
un pobre ovejero, ¿cómo iba a fijarse
MI7 LA
en hija tan linda un mísero peón?

Por el ventisquero, por Tierra del Fuego,


corazón de escarcha solo se perdió;
fue a buscar el oro en penosa marcha
y oro a manos llenas escarcha encontró.

INTERMEDIO: LAm REm SOL7 DO REm LAm FA MI7

2º ESTROFA

Pero el panteonero y los tiempos malos


cambiaron la suerte del viejo patrón,
y al rancho de escarcha llegó una mañana
con su hija pidiendo ”¡amparo, por Dios!”

Y bajo ese rancho del noble ovejero


donde tanto tiempo reinaba el dolor,
al fuego de un beso se unieron dos almas,
y bajo la nieve cantan al amor.

45
CORO

OUTRO: LAm REm SOL7 DO REm LAm FA MI7 LAm


Eric Clapton
Tears in Heaven
Intro
D A Bm D G A7 D

D A Bm
Would you know my name
G D A
If I saw you in Heaven
D A Bm
Would it be the same
G D A
if I saw you in Heaven

Bm F#m Am G
I must be strong and carry on
Em A7
Cause I know I don’t belong...
D A Bm G D A
here in heaven

D A Bm
Would you hold my hand
G D A
If I saw you in Heaven
D A Bm
Would you help me stand
G D A
If I saw you in Heaven

Bm F# Am G
I’ll find my way through night and day
Em A7
Cause I know I just can’t stay
D A Bm G D A
here in heaven

F C Dm G C G Am G C
Time can bring you down, time can bend your knees
F C Dm G C
Time can break your heart have you beggin please
G F
beggin please

Intro

Bm F# Am G
Beyond the door there’s peace for sure
Em A7
And I know there’ll be no more...
D A Bm G D A
tears in heaven

Intro

Repeat verse one and chorus

46
Eros Ramazzotti porque se que estan alli
F Dm
Otra como tú donde yo las puse apasionadas
F G F
justo sobre ti,
F-Em-F-G-Am F-Em-F-G-Am G
F parece claro.
No puede haber C G Dm
Em Otra no puede haber
donde la encontraria C G Dm
F G Am si no existe me la inventare
otra mujer, igual que tu. C G Dm
F parece claro que
No puede haber (desgracia semejante) C G Dm
Em aun estoy envenenado de ti.
desgracia semejante (encontrar otra mujer) D-A-Em-G D-A-Em D-A-Em D-A-Em
F G G-F# Bm G A G-F#m
otra mujer (desgracia semejante) es la cosa mas preocupante
C G F#m
igual que tu. evidentemente preocupante
Am G A
Con iguales emociones no, otra mujer,
G
con las expresiones no creo.
C
que en otra sonrisa no veria yo.
Am
Con esa mirada atenta

tan indiferente
C
cuando me salia de la situacion.
Dm
Con la misma fantasia

la capacidad de aguantar
F
el ritmo despiadado
Dm F G
de mi mal humor.
C G Dm
Otra no puede haber
C G Dm
si no existe me la inventare
C G Dm
parece claro que
C G Dm
aun estoy envenenado de ti
F-E Am F G F-G Am-C
es la co-sa mas evidente.
Am
Y me faltan cada noche

todas tus manias

aunque mas enormes

47
C
eran si las mias
Dm
y me faltan tus miradas
Extreme
More than Words
INTRO:

G... Cadd9... Am7... C... C.D. G...

VERSE:
G Cadd9
Saying I love you is

Am7 C D G
not the words I want to hear from you

G Cadd9
It’s not that I want you

Am7 C D Em
not to say but if you only knew

Bm7 Am7
Ho-ow ea-sy

D G D/F# Em
It would be to show me how you feel

Bm7 Am7 D7 G7
More than words is all you have to do

G7 C
To make it real

C Cm G
Then you wouldn’t have to say

Em7
That you love me ‘cos

Am7 D7 G
I’d already know

BRIDGE:
G D/F# Em Bm C
What would you do if my heart was torn in two

C G/B Am7 D7 G
More than words to show you feel that your love for me is real

G D/F# Em7 Bm7 C


What would you say if I took those words away?

C G/B Am7
Then you couldn’t make things new

D7 G

48
Just by saying I love you

G... Cadd9... Am7... C... C.D. G...


G... Cadd9... Am7... C... C.D. G...
VERSE 2
G Cadd9
Now that I’ve tried to

Am7 C D G
Talk to you and make you understand

G Cadd9
All that you have to do is

Am7 C D Em
Close your eyes and just reach out your hands

Bm7 Am7
And touch me

D G D/F# Em
Hold me close don’t ever let me go

Bm7 Am7 D7 G7
More than words. Is all I ever

G7 C
needed you to show

C Cm G
Then you wouldn’t have to say

Em7
That you love me

Am7 D7 G
Cos I’d All Ready Know

BRIDGE:(fade out)
G D/F# Em Bm C
What would you do if my heart was torn in two

C G/B Am7 D7 G
More than words to show you feel that your love for me is real

G D/F# Em7 Bm7 C


What would you say if I took those words away?

C G/B Am7
Then you couldn’t make things new

D7 G
Just by saying I love you

49
Fito Paez
11 y 6
G F#m7(b5) B7 G F#m7(b5) B7 Em Em7 A7
En un cafe se vieron por casualidad uh, uh uh, uh, uh, uh.......
Em Em7 A7 C7 C G Em C7
cansados en el alma de tanto andar ah, ah......
Cm7 Gadd9 Am7 Dsus4
ella tenia un clavel en mano. (G - C - D - C) X4

G F#m7(b5) B7 Final: G - C - D - C GMaj7.


El se acerco, le pregunto si andaba bien trecillos X4 tiempos
Em Em7 A7
llegaba a la ventana en puntas de pie trecillos: (la-sol#-fa)
Am7 Dsus4 G7 (mi-re-do)
y la llevo a caminar por Corrientes

Cadd9 Bm7 Em7 G7 Cadd9 Bm7 Em7 G7


Mi --- ren todos, e ---- llos solos
Cadd9 B7 Em A7
pue -- den mas que el amor
Am7 Dsus4 G7
y son mas fuertes que el Olimpo

Cadd9 Bm7 Em7 G7 Cadd9 Bm7 Em7 G7


Se escondieron en el centro
Cadd9 B7 Em A7
y en el baño de un bar
Am7 Dsus4 G7
sellaron todo con un beso.

G F#m7(b5) B7
Durante un mes vendieron rosas en La Paz
Em Em7 A7
presiento que no importaba nada mas
Cm7 Gadd9 Am7 Dsus4
y enre los dos juntaban algo.
G F#m7(b5) B7
No se por que pero jamas los volvi a ver
Em Em7 A7
el carga con 11 y ella con 6
Am7 Dsus4 G7
y si se reia, el le daba la luna.

Cadd9 Bm7 Em7 G7 Cadd9 Bm7 Em7 G7


Mi --- ren todos, e ---- llos solos
Cadd9 B7 Em A7
pue -- den mas que el amor
Am7 Dsus4 G7
y son mas fuertes que el Olimpo

Cadd9 Bm7 Em7 G7 Cadd9 Bm7 Em7 G7


Se escondieron en el centro

50
Cadd9 B7 Em A7
y en el baño de un bar
Am7 Dsus4 G7
sellaron todo con un beso.
Fito Paez no olvides que el perdon es lo divino
fa do
Al Lado Del Camino y herrar a veces suele ser humano.

do
intro: do-fa-do-fa no es bueno nunca hacerse de enemigos
e------------------------ + fa
B------------------------ ¦ que no esten a la altura del conflicto
G------------------------ } do
D-------2---3-------2---3 ¦ que piensan que hacen una guerra
A---3-----------3-------- ¦ fa bajada
E-3-----------3---------- + y se hacen pis encima como chicos
lam lam/sol
que rondan por siniestros ministerios
do fa do bajada
me gusta estar al lado del camino, haciendo la parodia de artistas
fa lam lam/sol
fumando el humo mientrs todo pasa, que todo lo que brilla en este mundo
do do
me gusta abrir los ojos y estar vivo tan solo les da capa y les da envidia
fa bajada
tener que vermelas con la resaca do
lam lam/sol yo era un pibe triste y encantado
entonces navegarse a ser precisos fa
fa do bajada the beatles, caña legüi, maravillas
en barcos que se estrellan en la nada do
lam lam/sol los libros, las canciones y los pianos
vivir atormentado es sentido, fa bajada
fa do el cine, las traiciones, los enigmas
creo que esta sí, es la parte mas pesada lam lam/sol
mi padre, las cervesas, las pastillas
do fa
en tiempos donde nadie escucha a nadie, los misterios, el wisky malo,
fa do bajada
en tiempos donde todos contra todos, los oleos, el amor, los escenarios
do lam lam/sol
en tiempos de egoistas y mezquinos, el hambre, el frio, el crimen,
fa bajada
en tiempos donde siempre estamos solos, el dinero y mis 10 tias
lam lam/sol fa do
habra que declararse incompetentes me hicieron este hombre en revelado
fa do bajada
en todas las materias del mercado do
lam lam/sol si alguna vez me cruzas por la calle
habra que declararse un inocente, fa
fa do regalame tu beso y no te aflijas
o habra que ser abyecto y desalmado do
si ves que estoy pensando en otra cosa
do fa bajada
yo ya no pertenezco a ningun itsmo, no es nada malo, es que paso una brisa
fa lam lam/sol
me considero vivo y enterrado, la brisa de la muerte enamorada
do fa do bajada
yo puse las canciones en tu walkman, que ronda como un angel asesino
fa bajada lam lam/sol
el tiempo a mi me puso en otro lado mas no te asustes siempre se me pasa

51
lam lam/sol fa do
tendre que hacer lo que es y no debido es solo la intuicion de mi destino
fa do bajada
tendre que hacer el bien y hacer el daño do
lam lam/sol me gusta estar al lado del camino
fa
fumando el humo mienstra todo pasa
do
me gusta regresarme del olvido
fa bajada
para acordarme en sueños de mi casa
lam lam/sol fa do bajada
del chico que jugaba a la pelota del 49585
lam lam/sol
nadie nos prometio un jardin de rosas
fa do
hablamos del peligro de estar vivo

do
no vine a divertir a tu familia
fa
mientras el mundo se cae a pedazos
do
me gusta estar al lado del camino
fa
me gusta sentirte a mi lado
do
me gusta estar al lado del camino
fa
dormirte cada noche entre mis brazos

intro:
al lado del camino

al lado del camino

al lado del camino...

bajada

e-----------------------
B----------------1------
G----------------2------
D----------------2------
A---3---2---0----0------
E-----------------------

52
Gloria Stefan D
Tengo una frase colgada
Hoy C
entre mi boca y mi almohada
D G
Em D que me desnuda ante ti.
Tengo marcado en el pecho Em D
C Tengo una playa y un pueblo
todos los días que el tiempo C
D G que me acompañan de noche
no me dejó estar aquí. B7 Em
Em D cuando no estás junto a mi.
Tengo una fe que madura
C C D
que va conmigo y me cura Tengo una mañana constante
B7 Em G
desde que te conocí. y una acuarela esperando
D Em
Tengo una huella perdida verte pintado de azul.
C C D
entre tu sombra y la mía Tengo tu amor y tu suerte,
D G G
que no me deja mentir. y un caminito empinado.
Em D B7
Soy una moneda en la fuente, Tengo el mar del otro lado,
C Em
tú mi deseo pendiente, tú eres mi norte y mi sur.
B7 Em
mis ganas de revivir. ESTRIBILLO (Chorus):
C D C
Tengo una mañana constante Hoy voy a verte de nuevo,
G D G
y una acuarela esperando voy a envolverme en tu ropa.
Em B7
verte pintado de azul. Susúrrame en tu silencio
C D Em
Tengo tu amor y tu suerte, cuando me veas llegar.
G C
y un caminito empinado. Hoy voy a verte de nuevo,
B7 D G
Tengo el mar del otro lado, voy a alegrar tu tristeza.
Em B7
tú eres mi norte y mi sur. Vamos a hacer una fiesta
Em
ESTRIBILLO (Chorus): pa’ que este amor crezca más.
C C
Hoy voy a verte de nuevo, Hoy voy a verte de nuevo,
D G D G
voy a envolverme en tu ropa. voy a envolverme en tu ropa.
B7 B7
Susúrrame en tu silencio Susúrrame en tu silencio
Em Em
cuando me veas llegar. cuando me veas llegar.
C C
Hoy voy a verte de nuevo, Hoy voy a verte de nuevo,
D G D G

53
voy a alegrar tu tristeza. voy a alegrar tu tristeza.
B7 B7
Vamos a hacer una fiesta Vamos a hacer una fiesta
Em Em
pa’ que este amor crezca más. pa’ que este amor crezca más.
Guns n Roses
Patience
Intro: Solo
C G A D C G A D
C G C Em C G D D G C
A little patience
C G C
Shed a tear cause I’m missing you Mhh Yeah
G
I’m still allright to smile G
A D I’ve been walking the streets tonight
Girl I think about you every day now C
Just trying to get it right
C G
Was a time when I wasn’t sure It’s hard to see with so many around
G C
But you set my mind at ease you know I don’t like being stuck in a
A D crowd
There is no doubt, you’re in my heart now G
And the streets don’t change but maybe the
C G name
Sad woman take it slow C
C Em I ain’t got time for the game
It will work itself out fine G
C G D Cause I need you
All we need is just a little patience C
Yeah Yeah cause I need you
C G G
Sad sugar make it slow and Uh I need you
C Em D
It comes together fine Woh I need you
C G D G C G
All we need is just a little patience Uhh this time

Sit here on the stairs


Cause I’d rather be alone
If I can’t have you right now SIGUE EN LA OTRA PÁGINA CON LAS TABLATURAS
I’ll wait dear

Sometimes I get so candescent


But I can’t speed up the time
You know love, there’s one more thing
To consider

Sad woman take it slow


And things will be just fine
You and I just use a little patience

Sad sugar take the time


Cause the lights are shining bright
You and I got what it takes to make it

D
We don’t fake it

54
D
Ahh and never break it
D
Cause I can’t take it
Chords used: Av= 577655 G6= xx0000 C9= x32030 F6= 1x3231
C G
|------0---0-----|----------------|----------------|----------------|
|------1---1-1-1-|3p1-1-0h1-1-1p0-|------0---------|1p0-------------|
|----0-------0-0-|0---0-0---0-0---|----0-----0-----|----0-2p0---0h2-|
|2-2---------2-2-|2---2-2---2-2---|--0---------0---|----------0-0h2-|
|3-----------3-3-|3---3-3---3-3---|2-------------2-|----------------|
|----------------|----------------|----------------|----------------|

Av D
|----------------|----------------|2---2---2-2-----|3p2-2-0---2-----|
|----2---------0-|3p2---0h2-2-----|3-3---3-----3-3-|3---3-3---3-----|
|------2---2-----|----2-0h2-2-2-0-|2-------------2-|2---2-2---2-----|
|--------2---2---|----2-------2-0-|0-------------0-|0---0-0---0-----|
|0---------------|----------------|----------------|------------0-2-|
|----------------|----------------|----------------|----------------|
| |
|----------------|----------------|----------------|----------------|
|----------------|----------------|----------------|----------------|
|----------------|----------------|----------------|------------7---|
|----------------|----------------|----------------|----------------|
|----------------|----------------|----------------|----------------|
|----------------|----------------|----------------|----------------|

C G
|------0---0-----|----------------|----------------|----------------|
|------1---1-1-1-|3p1-1-0h1-1-1p0-|------0---------|1p0-------------|
|----0-------0-0-|0---0-0---0-0---|----0-----0-----|----0-2p0---0h2-|
|2-2---------2-2-|2---2-2---2-2---|--0---------0---|----------0-0h2-|
|3-----------3-3-|3---3-3---3-3---|2-------------2-|----------------|
|----------------|----------------|----------------|----------------|
| |
|----------------|----10----------|--7-8-9-10------|----------------|
|8-------------8-|1012--10--8-108-|10^-------10^-8-|------------10--|
|----------------|------**--------|----------------|--------------9-|
|----------------|----------------|----------------|----------------|
|----------------|----------------|----------------|----------------|
|----------------|----------------|----------------|----------------|

Av D
|----------------|----------------|2---2---2-2-----|3p2-2-0---2-----|
|----2---------0-|3p2---0h2-2-----|3-3---3-----3-3-|3---3-3---3-----|
|------2---2-----|----2-0h2-2-2-0-|2-------------2-|2---2-2---2-----|
|--------2---2---|----2-------2-0-|0-------------0-|0---0-0---0-----|
|0---------------|----------------|----------------|------------0-2-|
|----------------|----------------|----------------|----------------|
| |
|------------7s8s|9---------------|--10----8-----7-|----7s5---------|
|10--------------|----------------|----------------|8---------------|
|------------7s8s|9---------------|11----9-----7---|--7--s5---------|
|----------------|----------------|----------------|----------------|
|----------------|----------------|----------------|----------------|
|----------------|----------------|----------------|----------------|

C G6 G C G6 Em G6
|------0---------|----------------|----------------|----------------|

55
|----1---3p1-----|----------------|------1---------|----------------|
|--0-----------0-|------0---------|----0---0-------|------0---------|
|2-----------2---|----0-----0-----|--2-------2-----|----2-----------|
|3---------------|--2---------2---|3---------------|--2-------------|
|----------------|3-------------3-|------------3-2-|0---------------|
C G6 G G6 D
|----------------|----------------|------2---------|----------------|
|------1---------|--------0-------|3---------------|----------------|
|----0---0-------|------0---0-----|2---------------|----------------|
|--2-------2-----|----0-------0---|0---------------|----------------|
|3-----------3-2-|2-2-------------|----------------|----------------|
|----------------|3---------------|----------------|----------------|

Shed a tear...
|----------------|----------------|----------------|----------------|
|------1---1-1-1-|3p1---0---1-----|----------------|----------------|
|----0-----0-0-0-|0-----------0---|----------------|--------0-----0-|
|--2-------2-2-2-|2---------------|----------------|----0-----0-2-0-|
|3---------3-3-3-|3---3---------3-|2-------2-0-----|----2-0---------|
|----------------|----------------|----------------|3---------------|
| |
|----------------|----------------|----------------|----------------|
|------1---------|3-1---1---------|----------------|----------------|
|----0-----------|----0---0-------|------0---------|------0---------|
|--2-------------|----------2-----|----0-----------|----0---0-----0-|
|3---------------|------------3-0-|2---------0-----|--2-------2-----|
|----------------|----------------|--------------3-|3-----------3---|

|--------5-------|----------------|----------------|----------------|
|------2---------|3p2---0---2-----|----------------|----------------|
|----2-----------|----------------|----------------|--2---2-4-2-----|
|2---------------|----2-----------|0-------------0s|4-----------4---|
|0---------------|----------0-3-4-|----------------|--------------0-|
|----------------|----------------|----------------|----------------|
| |
|------5---------|5-----5---------|------0-2-------|3-2-----0-2-----|
|----5---5-------|5-------5-------|----3-----------|----------------|
|--6-------------|7---------------|----------------|----------------|
|7-----------7---|----------------|0-------------0-|----------------|
|----------------|----------0-3-4-|----------------|----------------|
|----------------|----------------|----------------|----------------|
Was a time...
|----------------|----------------|----------------|----------------|
|------1---1-1-1-|3p1---0---1-----|----------------|----------------|
|----0-----0-0-0-|0-----------0---|----------------|--------0-----0-|
|--2-------2-2-2-|2---------------|----------------|----0-----0-2-0-|
|3---------3-3-3-|3---3---------3-|2-------2-0-----|----2-0---------|
|----------------|----------------|----------------|3---------------|
| |
|----------------|----------------|----------------|----------------|
|------1---------|3-1---1---------|----------------|----------------|
|----0-----------|----0---0-------|------0---------|------0---------|
|--2-------------|----------2-----|----0-----------|----0---0-----0-|
|3---------------|------------3-0-|2---------0-----|--2-------2-----|
|----------------|----------------|--------------3-|3-----------3---|

|--------5-------|----------------|------0-2-------|3-2---0-0-2-----|
|------2---------|3p2---0---2-----|----3-----3-----|------3-3-3---0-|
|----2-----------|----------------|------------2---|--------2-2-2---|
|2---------------|----2-----------|0-------------0-|----------------|
|0---------------|----------0-3-4-|----------------|----------------|

56
|----------------|----------------|----------------|----------------|
|------5---------|5-----5---------|----2---2-------|----------------|
|----5---5-------|5-------5-------|------3---3-----|3-----3---3-3-0-|
|--6-------------|7---------------|------------2-0-|----------2-2-0-|
|7-----------7---|----------------|0---------------|----------0-0-0-|
|----------------|----------0-3-4-|----------------|----------------|
|----------------|----------------|----------------|----------------|

CHORUS
Said woman, take it slow...
C9 G6 G G6 C G6 Em G6
|----------------|--------3-------|----------------|------0---------|
|1-------1-------|3-3-0-0---3---0-|----1-----------|----0---0-------|
|0-------0-------|0-----------0---|0---0-----------|----------0---0-|
|2-------2-------|0---------------|2---2-----------|--2---------2---|
|3-------3-------|2---------------|3---3-----------|----------------|
|----------------|3---------------|------------3-2-|0---------------|

C G6 G /----- Same as tabbed guitar -----\


|------0---------|----------------|2---2---0-2---3-|--2---0---2-----|
|------1---1-1-0-|--------------0-|3---3(3)3-3---3-|3-3-3-3-3-3-3-0-|
|--0---0---0-0-0-|0-----0-------0-|2---2(2)2-2---2-|2-2-2-2-2-2-2-0-|
|2---2-----2-2-0-|0---0-----0---0-|0---0(0)0-0---0-|0-0-0-0-0-0-0-0-|
|3---3-----3-3---|2-----------2---|----------------|----------------|
|----------------|3---------------|----------------|----------------|

C9 G6 G G6 C G6 Em G6
|----------------|--------3-------|----------------|------0---------|
|1-------1-------|3-3-0-0---3---0-|----1-----------|----0---0-------|
|0-------0-------|0-----------0---|0---0-----------|----------0---0-|
|2-------2-------|0---------------|2---2-----------|--2---------2---|
|3-------3-------|2---------------|3---3-----------|----------------|
|----------------|3---------------|------------3-2-|0---------------|

Figure 1 (end Figure 1)


C G6 G D
|------0---------|----------------|2---2---0-2---3-|--2---0---2---22|
|------1---1-1-0-|--------------0-|3---3(3)3-3-3-3-|3-3-3-3-3-3-3-33|
|--0---0---0-0-0-|0-----0-------0-|2---2(2)2-2-2-2-|2-2-2-2-2-2-2-22|
|2---2-----2-2-0-|0---0-----0---0-|0---0(0)0-0-0-0-|0-0-0-0-0-0-0-00|
|3---3-----3-3---|2-----------2---|----------------|----------------|
|----------------|3---------------|----------------|----------------|

|2---------------|----------------|----10----------|----------------|
|3---------------|--------------5s|10--------------|----------------|
|2---------------|--------------6s|11--------------|--------------7s|
|0---------------|--------------7s|12--------------|----------------|
|----------------|----------------|----------------|----------------|
|----------------|----------------|----------------|----------------|
| |
|2---2---0-2---3-|--2---0---2---22|2---2---0-2---3-|--2---0---2---22|
|3---3(3)3-3-3-3-|3-3-3-3-3-3-3-33|3---3(3)3-3-3-3-|3-3-3-3-3-3-3-33|
|2---2(2)2-2-2-2-|2-2-2-2-2-2-2-22|2---2(2)2-2-2-2-|2-2-2-2-2-2-2-22|
|0---0(0)0-0-0-0-|0-0-0-0-0-0-0-00|0---0(0)0-0-0-0-|0-0-0-0-0-0-0-00|
|----------------|----------------|----------------|----------------|

57
|----------------|----------------|----------------|----------------|
| 1.
|----14--------14|----14--14--14\-|
|----------------|--14--14--14----|
|14--------14----|----------------|
|----------------|----------------|
|----------------|----------------|
|----------------|----------------|
| | Go back to play Verse 2.
|2---2---0-2---3-|--2---0---2-----|
|3---3(3)3-3-3-3-|3-3-3-3-3-3-----|
|2---2(2)2-2-2-2-|2-2-2-2-2-2-----|
|0---0(0)0-0-0-0-|0-0-0-0-0-0-----|
|----------------|------------0-2-|
|----------------|----------------|

| 2.
|----14--------14|------------8p7-|8-------8s108---|------------8p7-|
|----------------|----------------|--------------12|--------8-------|
|14--------14----|----------------|--------------**|----------------|
|----------------|----------------|----------------|----------------|
|----------------|----------------|----------------|----------------|
|----------------|----------------|----------------|----------------|
| |
|2---2---0-2---3-|--2-----------00|----------------|----------------|
|3---3(3)3-3-3-3-|3-3-3-0-0-3-3-11|----------------|----------------|
|2---2(2)2-2-2-2-|2-2-2-0-0-2-2-00|With chorus backing chords-------|
|0---0(0)0-0-0-0-|0-0-0-0-0-0-0-22|----------------|----------------|
|----------------|--------------33|----------------|----------------|
|----------------|----------------|----------------|----------------|

|8-------8s10--12|------------8p7-|8-------8s108---|--------------12|
|------------12**|----------------|--------------12|--108---8---8-**|
|----------------|----------------|--------------**|----------------|
|----------------|----------------|----------------|----------------|
|----------------|----------------|----------------|----------------|
|----------------|----------------|----------------|----------------|
| |
|----------------|----------------|----------------|----------------|
|----------------|----------------|----------------|----------------|
|----------------|----------------|----------------|----------------|
|----------------|----------------|----------------|----------------|
|----------------|----------------|----------------|----------------|
|----------------|----------------|----------------|----------------|

|--1010--------14|-12-10h12-10----|----------------|----------------|
|--------------**|----------------|----5-8---------|----------------|
|----------------|----------------|7^------7^r-5---|----4-7---------|
|----------------|----------------|----------------|7^------7^r-5---|
|----------------|----------------|----------------|----------------|
|----------------|----------------|----------------|----------------|
| |
|----------------|----------------|----------------|----------------|
|----------------|----------------|----------------|----------------|
|-With-Figure-1--|----------------|-With-chorus-backing-chords------|
|----------------|----------------|----------------|----------------|
|----------------|----------------|----------------|----------------|

58
|----------------|----------------|----------------|----------------|
|----------------|----------------|----------------|----------------|
|----5-8---------|--8-10^8----8-10|10^-r-8-10--8-10^--8-10--8-108-12|
|7^------7^r-5-7s|9-------9-------|----------9-----|------9-------**|
|----------------|----------------|----------------|----------------|
|----------------|----------------|----------------|----------------|
|----------------|----------------|----------------|----------------|
| |
|----------------|----------------|----------------|----------------|
|----------------|----------------|----------------|----------------|
|----------------|----------------|----------------|----------------|
|----------------|----------------|----------------|----------------|
|----------------|----------------|----------------|----------------|
|----------------|----------------|----------------|----------------|

|----------------|----------------|----------------|----------------|
|--10-10---------|----------------|5---3-------4p2-|----2---------7^|
|----------------|----------------|**--------------|3h4---0---------|
|----------------|----------------|----------------|----------------|
|----------------|----------------|----------------|----------------|
|----------------|----------------|----------------|----------------|
| |
|----------------|----------------|----------------|----------------|
|----------------|----------------|----------------|----------------|
|--With-Figure-1-(3-times)--------|----------------|----------------|
|----------------|----------------|----------------|----------------|
|----------------|----------------|----------------|----------------|
|----------------|----------------|----------------|----------------|

|----------------|----------------|----------------|----------------|
|----7-----------|-------***----7^|--7-----5-7---3-|----------3-----|
|----------------|4p2-----5-------|----------------|--2---0---2-----|
|----------------|----3h4-0-------|----------------|------0---0-----|
|----------------|----------------|----------------|----------------|
|----------------|----------------|----------------|----------------|
| |
|----------------|----------------|2---2---0-2---3-|3-2---0---------|
|----------------|----------------|3---3(3)3-3-3-3-|3-3---3---3-----|
|----------------|----------------|2---2(2)2-2-2-2-|2-2---2---2-----|
|----------------|----------------|0---0(0)0-0-0-0-|0-0---0---0-----|
|----------------|----------------|----------------|----------------|
|----------------|----------------|----------------|----------------|

For the last part of the song use the following figures:
|-2--2---2---2-2-|-------3-33-3333|
|-3--3---3---3-30|3-333-33-33-3333|
|-2--2---2---2-20|0-000-00-00-0000| Figure 2
|-0--0---0---0-00|0-000-00-00-0000|
|-0-------------0|2---2-22-22-2222|
|----2-0-2---2-20|3---3-33-33-3333|

F6 | G | D | Figure 3

Play figure 2 10 times, then on the second “I need you” play figure 3.
The song ends as follows:

|-3p2------------|2---------------|

59
|-----3----------|3---------------|
|-------2--------|2---------------|
|---------5p4-0--|0---------------|
|----------------|----------------|
|----------------|----------------|
Guns N’ Roses C G D
Ooooooooh Sweet love o’ mine
Sweet Child O’ Mine
Em C Bm Am x 8
D
She’s got a smile that it seems to me Em G A C D
C Where do we go, Where do we go now, Where
Reminds me of childhood memories do we go
G Em G A C
Where everything D
D Where do we go, Where do we go now, Where
Was as fresh as a bright blue sky do we go now
D Em G A C D
Now and then when I see her face Where do we go, Sweet child, Where do we go
C now
She takes me away to that special place Em G A C
G D
And if I stared to long Aih, Aih, Aih Aih, where do we go-
D oooooooooooo now
I’d probably break down and cry Em G A C D
Where do we gooooooooooo , where do we go
C G D now
Whoa Oh, Sweet child o’ mine Em G A C D
C G D Where do we gooooooo, where do we go now
Whoa, Oh, Oh, Oh Sweet love o’ mine Em G A
C D
C G D Where do we go, Sweet Child, where do we go
now Now-now-now-now-now-now
D Em G A C D Em
She’s got eyes of the bluest skies Sweet child, sweet chi-. . ld of mine
C
As if they thought of rain
G
I hate to look into those eyes
D
And see an ounce of pain
D
Her hair reminds me of a warm safe place
C
Where as a child I’d hide
G
And pray for the thunder

And the rain


D
To quietly pass me by

C G D
Whoa Oh, Sweet child o’ mine
C G D
Whoa, Oh, Oh, Oh Sweet love o’ mine

C G D x 2

C G D

60
Whoa Oh, Sweet child o’ mine
C G D
Whoa, Oh, Oh, Oh Sweet love o’ mine
C G D
Whoa Oh, Oh, Oh Sweet child o’ mine
Guns n Roses C
In the jungle
Welcome to the Jungle D
welcome to the jungle
E
Watch it bring you to your knees, knees
A D G D G
Welcome to the jungle I wanna watch you bleed
We got fun and games
We got everything you want D G
Honey we know the names And when you’re high you never
D G
E Ever want to be down
We are the people that you find F G F G F A E E7/9 E E7/9
Whatever you may need C#m B C#m
If you got the money honey So down, so down ,so down, yeah B
We got your disease E B E B A F# B E

C E
In the jungle You know were you are
D Your in the jungle, baby
Welcome to the jungle
E F# F F# G A G# A A#
Watch it bring you to your knees, knees Your gonna die
I wanna watch you bleed
C
In the jungle
A D
welcome to the jungle welcome to the jungle
We take it day by day E
If you want your gonna bleed watch it bring you to your knees, knees
But its the price you pay C
In the jungle
E D
And your a very sexy girl welcome to the jungle
Thats very hard to please E
You can taste the bright lights fell my, my, my, my serpentine
But you wont get them for free C
In the jungle
C D
In the jungle welcome to the jungle
D E
Welcome to the jungle Watch it bring you to your knees, knees
E C
Fell my, my, my serpentine In the jungle
B E D
I,i wont to hear you screem Welcome to the jungle
E
A watch it bring to you
Welcome to the jungle D Bb A G E A G E E7/9
It gets worse hear everyday Its gonna bring you down, ha!
Ya learn to live like an animal
In the jungle were we play

E
You got a hunger for what you see

61
You take it eventually
You can anything you want
But you better not take it from me
Illapu
Candombe para José

A.
REM
En un pueblo olvidado, no sé por qué
mim
Vi su danza de moreno, lo hace mover
SOL LA7 RE RE7
En el pueblo lo llamaban "negro José"
SOL LA7 RE
Amigo negro José

A.
Con mucho amor candombea el negro José
Tiene el color de la noche sobre la piel
Es muy feliz candombeando el negro José
Amigo negro José
(FA#)
B.
sim FA#
Pérdoname si te digo, negro José,
sim
Que eres diablo pero amigo, negro José,
FA#
Tu futuro va conmigo, negro José
SOL LA7 RE
Yo te digo porque sé

A.
Con mucho amor las miradas, cuando al bailar
El tamboril de sus ojos parece hablar
Y su camisa endiablada quiere saltar
Amigo negro José
No tienes ninguna pena al parecer,
Pero las penas te sobran, negro José,
Que tú en el baile las dejas, yo sé muy bien
Amigo negro José

B.
Pérdoname si te digo...
SOL LA7 RE-RE7
...Yo te digo porque sé,
SOL LA7 RE-RE7
Amigo negro José
SOL LA7 RE-RE7
Yo te digo porque sé,
SOL LA7 RE-RE7
Amigo negro José,
SOL LA7 RE
Yo te digo porque sé.

62
Illapu Lam
un canto perdido
Lejos del amor FA
un sol sin vida
DO SOL
INTRO:DO-FA-DO-FA-DO-FA que hacen aquí estos desvelos
Lam FA SOL
DO que hacen aquí sin un consuelo.
Que hacen aquí
FA DO SOL Lam FA
estas gaviotas
DO DO
tan lejos del mar Que hacen aquí
SOL FA
que hacen aquí estos amantes
Rem DO
entres piedras y rincón en este lugar
SOL SOL
en este río marrón que hacen aquí
Rem Rem
que hacen aquí entre hierbas y candor
FA SOL SOL
tan lejos del mar en este parque de amor
DO Rem
Que hacen aquí que hacen aquí
FA FA SOL
estos pequeños lejos de la razón.
DO
lejos del hogar DO
SOL Lejos del amor (lejos del amor)
que hacen aquí SOL
Rem lejos del cielo (lejos del cielo)
entre piedras y dolor Lam
SOL un canto perdido
en este sucio balcón FA
Rem un sol sin vida
que hacen aquí DO SOL
FA SOL qué hacen aquí estos desvelos
lejos del hogar. Lam SOL
qué hacen aquí sin un consuelo.
DO
Que hacen aquí DO FA DO FA
FA
estos amantes DO FA
DO Qué hacen aquí, qué hacen aquí, qué hacen aquí
en este lugar DO FA
SOL Qué hacen aquí, qué hacen aquí, qué hacen aquí
que hacen aquí DO FA
Rem Qué hacen aquí,
entre hierbas y candor
SOL
en este parque de amor
Rem
que hacen aquí
FA SOL
lejos de la razón.

DO
Lejos del amor (lejos del amor)
SOL
lejos del cielo (lejos del cielo)
63
Javiera y los Imposibles F Dm
una caricia que no
F

Maldita Primavera F
suena sincera,
C
A) un te quiero y no te quiero
C F C F F
Fue más o menos así: y aunque no quieras
C Dm C F C F
vino blanco, noche y viejas canciones sin quererlo piensa en mí...
F Dm
y se reía de mí CORO
F C C F C
dulce embustera... Sí...
G G C F
la Maldita Primavera... para enamorarme ahora...
C Fm7 Lam
B) volverá a mí...
C F C D7 G
¿Qué queda de un sueño erótico si la Maldita Primavera...
Dm
de repente me despierto y te has ido? C F C
F Dm F ¿Qué importa si...
Siento el vacío de ti... G C G Lam
F para enamorarme basta una hora?...
Me desespero C
C Pasa ligera...
como si el amor doliera G
F la Maldita Primavera...
y aunque no quiera F
C F C F Pasa ligera...
sin quererlo pieeeeeeenso en ti... C F C F
me maldice sólo a mí...
CORO
C F C C)
Sí... C
G C F Déjame amarte
para enamorarme ahora... G
C Fm7 Lam como si el amor viviera
volverá a mí... F
D7 G y aunque no quiera
la Maldita Primavera... C F C F (C F)
sin quererlo pieeeeeeenso en ti...
C F C
¿Qué sueño si... C F C
G C G Lam ¿Qué importa si...
para enamorarme basta una hora?... G C G Lam
C para enamorarme basta una hora?...
Pasa ligera... C
G Pasa ligera...
la Maldita Primavera... G
F la Maldita Primavera...
Pasa ligera...
C F C F F
me hace daño sóooolo a mí... Pasa ligera...
C F C F

64
B) para ti y para mí...
C F C
Lo que tu paso dejó
Dm
es un beso que no pasa de un beso,
Javiera y los Imposibles DoM Do7
Lo encontre sin sus pies
SolM Sol7

Te Amo Tanto DoM Do7 SolM Sol7


la cintura alreves
DoM Do7
Acordes Intro: DoM - Do7 - SolM - Sol7 pensar que lo ame
SolM Sol7
NOTA: cuando se rasgea el intro y se hace el cambio y no lo supe entender
entre SolM - Sol7, en la primera cuerda se tiene que DoM Do7
tocar esto (se tiene que seguir el rasgeo mientras se
te lo cuento de nuevo
hace)
SolM Sol7
y no sabras como fue
e---3-3-3-1-0-1-1-1---

Luego parte la canción:


Sim ReM LaM Mim
Y tu cara cambio
DoM Do7 SolM Sol7 Sim ReM LaM MiM
Lo encontre sin sus pies tu color se esfumo
DoM Do7 SolM Sol7 Sim ReM LaM Mim
la cintura alreves tus ojos eran sol
DoM Do7 Sim ReM FaM Fam
pensar que lo ame cuando no conocia el calor
SolM Sol7
y no lo supe entender
DoM Do7 SolM Sol7
me puedo quedar con tu alma ojala
DoM Do7 SolM Sol7 DoM Do7 SolM Sol7
con las manos heladas con tu cuerpo en el mar
DoM Do7 SolM Sol7 DoM Do7 SolM Sol7
la cabeza inflamada es dificil amar
DoM Do7
con los labios morados
SolM Sol7 CORO
se caia la piel DoM Do7 SolM Sol7
DoM Do7 Te amo tantooooo
te lo cuento de nuevo DoM Do7 SolM Sol7
SolM Sol7 no hay diferencia entre risa y llanto
y no sabras como fue DoM Do7 SolM Sol7
Te amo tantooooo
DoM Do7 SolM Sol7
Sim ReM LaM Mim no hay diferencia entre risa y llanto.
Y tu cara cambio
Sim ReM LaM MiM
tu color se esfumo
Sim ReM LaM Mim
tus ojos eran sol
Sim ReM FaM Fam
cuando no conocia el calor

CORO
DoM Do7 SolM Sol7
te amo tantooooo
DoM Do7 SolM Sol7
te amo tantoooooo aunque no me mires
DoM Do7 SolM Sol7
te amo tantooooo aunque no respires

65
DoM Do7 SolM Sol7
te amo tantoooo
John Lennon Otra forma de tocarla sería:
Do Fa
Imagine e|----------------------------------|
b|-------------0-1-1---1---1-------0|
g|-0---0---0-------2---2---2---2-3--|
C Cmaj7 F d|---2---2---2-------3---3---3------|
Imagine there's no heaven a|----------------------------------|
C Cmaj7 F E|----------------------------------|
It's easy if you try
C Cmaj7 F Hace eso durante toda la canción
No hell below us
C Cmaj7 F
Above us only sky
F Am Dm7 Dm7/C
Imagine all the people
G/B G7
living for today

C Cmaj7 F
Imagine there's no countries
C Cmaj7 F
It isnt hard to Do
C Cmaj7 F
Nothing to kill or die for
C Cmaj7 F
No religion too
F Am Dm7 Dm7/C
Imagine all the people
G/B G7
living life in peace

CORO
F G C E7
You may say I’m a dreamer
F G C E7
but I’m not the only one
F G C
E7
I hope some day you'll join us
F G
And the world will
C Cmaj7 F
live as one

/ C - - - / Cmaj7 - - - / F - - - / - - - - /

C Cmaj7 F
Imagine no possesions
C Cmaj7 F
I wonder if you can
C Cmaj7 F
No need for greed or hunger
C Cmaj7 F

66
A brotherhood of man
F Am Dm7 Dm7/C
Imagine all the people
G/B G7
Sharing all the world
John Lennon
Stand by Me

Do
When the night has come
Lam
And the land is dark
Fa Sol Do
And the moon is the only light we see
Do
No I won't be afraid
Lam
No I won't be afraid
Fa Sol Do
Just as long as you stand, stand by me
Do
And darling, darling stand by me
Lam
Oh, now, now, stand by me
Fa Sol DO
Stand by me, stand by me

Do
If the sky that we look upon
Lam
Should tumble and fall
Fa Sol Do
And the mountain should crumble to the sea
Do
I won't cry, I won't cry
Lam
No I won't shed a tear
Fa Sol Do
Just as long as you stand, stand by me

Do
And darling, darling stand by me
Lam
Oh, stand by me
Fa Sol Do
Stand by me, stand by me, stand by me

Do
Whenever you're in trouble won't you stand by me
Lam
Oh, now, now, stand by me
Fa Sol Do
Oh, stand by me, stand by me, stand by me
Para terminar repetir
Do una vez disminuyendo el
volumen gradualmente.
Darling, darling stand by me

67
Lam
Stand by me
Fa Sol Do
Oh stand by me, stand by me, stand by me
Jorge Yáñez
El Gorro de Lana

INTRO
SOL DO FA REM DO SOL DO REM SOL DO
E--7---8-----7-5---------5----- --7------8----13-13-13-13--10----
B----8---8-------8-6-5-6----8-- ----8--8---8-------------12--13--
G------------------------------ ---------------------------------
D------------------------------ ---------------------------------
A------------------------------ ---------------------------------
E------------------------------ ---------------------------------

DO FA
Un gorro de lana... Te mandé a tejer...
REM SOL DO
para el duro invierno... Que vino a caer...
DO DO7 FA
tú me lo tejiste... Con poca pasión...
FA LAM7 REM DO DO7
se destiñó... Se destiñó... Con la lluvia que cayó...
FA DO REM SOL DO
se destiñó... Se destiñó... Igual que tu cariño...

(Se toca la intro de nuevo)

DO FA
Siete ovejas blancas... Te dí pa' esquilar...
REM SOL DO
y después la lana... Te mandé a lavar,
DO DO7 FA
tú te descuidaste... En forma fatal,
FA LAM7 REM DO DO7
se la llevó... Se la llevó... La corriente del canal...
FA DO REM SOL DO
se la llevó... Se la llevó... Igual que a tu cariño...

(Se toca la intro de nuevo)

DO FA
Desata la lancha... Me voy pa' quellón...
REM SOL DO
échame la jarra... Y echa el acordeón,
DO DO7 FA
ya no quiero penas... Ni falsa pasión...
FA LAM7 REM DO DO7
voy pa' quellón... Voy pa' quellón, en busca de un nuevo amor...
FA DO REM SOL DO
voy pa' quellón... Voy pa' quellón, no quiero tu cariño...

DO FA
Lai larai laraaai la... Lai larai larai la...
REM SOL DO
lai larai laraaai la... Lai larai larai... (¡...otra más!)
DO DO7 FA

68
lai larai laraaai la... Lai larai laraaa...
FA LAM7 REM DO DO7
voy pa' quellón... Voy pa' quellón, en busca de un nuevo amor...
FA DO REM SOL DO
voy pa' quellón... Voy pa' quellón, no quiero tu cariño.
Kansas
Dust in The Wind
C C7M C2 C
e:-----------------|-----------------|-----------------|-----------------|
B:-1---------1-----|-0---------0-----|-3---------0-----|-1---------1-----|
G:-------0-------0-|-------0-------0-|-------0-------0-|-------0-------0-|
D:-----2-------2---|-----2-------2---|-----2-------2---|-----2-------2---|
A:-3-------3-------|-3-------3-------|-3-------3-------|-3-------3-------|
E:-----------------|-----------------|-----------------|-----------------|

Am2 Am4 Am Am2


e:-----------------|-----------------|-----------------|-----------------|
B:-0---------0-----|-3---------3-----|-1---------1-----|-0---------0-----|
G:-------2-------2-|-------2-------2-|-------2-------2-|-------2-------2-|
D:-----2-------2---|-----2-------2---|-----2-------2---|-----2-------2---|
A:-0-------0-------|-0-------0-------|-0-------0-------|-0-------0-------|
E:-----------------|-----------------|-----------------|-----------------|

C2 C C7M C
e:-----------------|-----------------|-----------------|-----------------|
B:-3---------3-----|-1---------1-----|-0---------0-----|-3---------3-----|
G:-------0-------0-|-------0-------0-|-------0-------0-|-------0-------0-|
D:-----2-------2---|-----2-------2---|-----2-------2---|-----2-------2---|
A:-3-------3-------|-3-------3-------|-3-------3-------|-3-------3-------|
E:-----------------|-----------------|-----------------|-----------------|

Am Am2 Am4 Am
e:-----------------|-----------------|-----------------|-----------------|
B:-1---------1-----|-0---------0-----|-3---------3-----|-1-----------0---|
G:-------2-------2-|-------2-------2-|-------2-------2-|-------2-2-------|
D:-----2-------2---|-----2-------2---|-----2-------2---|-----2-----------|
A:-0-------0-------|-0-------0-------|-0-------0-------|-0-------0---2---|
E:-----------------|-----------------|-----------------|-----------------|

C G/B Am
I close my eyes
G Dm Am G/B
only for a moment, and the moment’s gone.
C G/B Am
All my dreams
G Dm Am G/B
pass before my eyes, a curiosity.
Dm G Am
Dust in the wind.
Dm G Am
All they are is dust in the wind.

G/B C G/B Am
Same old song.
G Dm Am G/B
Just a drop of water in an endless sea.
C G/B Am
All we do
G Dm Am G/B
crumbles to the ground though we refuse to see.
Dm G Am
Dust in the wind.

69
Dm G Am G/B
All we are is dust in the wind.
F
Ohhhh
SOLO
(Solo de violín transcrito a guitarra)

Am G
|--------------------------|-------------------------------7--8--10-----|
|--5-----------------------|------------------------8--10---------------|
|--------------------------|---7--5--4-----5--7-------------------------|
|--------------------------|--------------------------------------------|
|--------------------------|--------------------------------------------|
|--------------------------|--------------------------------------------|

F
----------------------------5--7--8--------7--|-------------------------
----------------------6--8--------------------|-------------------------
-5--4--------4--5-----------------------4-----|-------------------------
-------7--------------------------------------|-------------------------
----------------------------------------------|-------------------------
----------------------------------------------|-------------------------

D/F# Am
-5--------------7--8--7--5-----5-----------|---------------------------|
----------------------------8-----8--5-----|---5-----------------------|
----------------------------------------7--|---------------------------|
-7--------------------------------------5--|---------------------------|
-------------------------------------------|---------------------------|
-------------------------------------------|---------------------------|

G
-----------------------------7--8--10-----|-----------------------------
----------------------8--10---------------|-----------------------------
-7--5--4-----5--7-------------------------|-----------------------------
------------------------------------------|-----------------------------
------------------------------------------|-----------------------------
------------------------------------------|-----------------------------

F
----------------------------5--7--8--------7--|-------------------------
----------------------6--8--------------------|-------------------------
-5--4--------4--5-----------------------4-----|-------------------------
-------7--------------------------------------|-------------------------
----------------------------------------------|-------------------------
----------------------------------------------|-------------------------

D/F# C
-----------------------------------------10--12--13--|---15---------15-----|----
-10--------------12--13--12--10--12--13--------------|---------------------|----
-----------------------------------------------------|---------------------|----
-7---------------------------------------------------|---------------------|----
-----------------------------------------------------|---7----------7------|----
-----------------------------------------------------|---------------------|----

----15--17--15------15-----------------------------------------------|----------
----------------18------18--17--18---17--15--17--15------15----------|----------
-----------------------------------------------------17------17--16--|----------

70
---------------------------------------------------------------------|----------
----7----------------------------------------------------------------|----------
---------------------------------------------------------------------|----------
Am
-------------------------|------------------------------------------------------
-------------------------|------------------------------------------------------
-14------------14--------|------------------------------------------------------
-------------------------|------------------------------------------------------
-7-------------7---------|------------------------------------------------------
-------------------------|------------------------------------------------------

--------------------------------------------------------------17--|-------------
-------------------------15--17-------15--17------15--17--18------|-------------
-14--16--17--14--16--17-----------17----------17------------------|-------------
------------------------------------------------------------------|-------------
----------------------------------7-------------------------------|-------------
------------------------------------------------------------------|-------------

C
-------15------------15-----|---------------------------------------------------
----------------------------|---------------------------------------------------
----------------------------|---------------------------------------------------
----------------------------|---------------------------------------------------
---------------------7------|---------------------------------------------------
----------------------------|---------------------------------------------------

-15--17--15------15-----------------------------------------------|-------------
-------------18------18--17--18---17--15--17--15------15----------|-------------
--------------------------------------------------17------17--16--|-------------
------------------------------------------------------------------|-------------
------------------------------------------------------------------|-------------
------------------------------------------------------------------|-------------

Am
-------------------|-----------------------------||-----------------------------
-------------------|-----------------------------||-----------------------------
-14------------14--|-----------------------------||-----------------------------
-------------------|-----------------------------||-----------------------------
-7-----------------|-----------------------------||-----------------------------
-------------------|-----------------------------||-----------------------------

Am G/B

C G/B Am
Don’t hang on.
G Dm Am G/B
Nothing lasts forever but the earth and sky. It
C G/B Am
slips away.
G Dm Am G/B
All your money won’t another minute buy.

Dm G Am
Dust in the wind.

Dm G Am Dm G Am
All we are is dust in the wind (all we are is dust in the wind)

71
Dm G Am Dm G Am
Dust in the wind. (everything is dust in the wind)

Dm G Am
Everything is dust in the wind.
Keko Yunge
Estoy pensando en tí

LA MI4
Tu nombre, lo guardan mis labios
RE MI4 MI
Tus ojos, mi corazón.
LA Do#m7
Tus besos enamoraron los míos
RE LA
Tu risa enamoró mi canción.
MI4 MI LA
Algún día tú estarás aquí conmigo.

De noche te busco en los sueños


De mañana te busco en el sol.
En la arena, caminando en los cerros
En las calles, te busco mi amor.

MI4 MI LA MI
Algún día tú estarás aquí conmigo.

LA MI RE MI
Estoy pensando en ti, en...

LA MI RE
Dime que me llamas, dime que me buscas, dímelo.
LA MI RE
Tan sólo dime que me sueñas, dime que me abrazas, dímelo.

LA MI RE
Estoy pensando en ti
LA MI RE MI4
Estoy pensando en ti.

La luna, como así las estrellas


Me recuerdan tus ojos de amor.
Y tu mirada ha iluminado mi vida
Ya sé que pronto caminaremos los dos.

Algún día tú estarás conmigo.

Estoy pensando en ti.

Dime que me llamas, dime que me buscas, dímelo.


Tan sólo dime que me abrazas, dime que me esperas, dímelo.

Estoy pensando en ti.


Estoy pensando en ti.

Y ahora dime que me quieres, dime que me amas, dímelo.

72
Estoy pensando en ti
Estoy pensando en ti.
MI MI4 MI
Estoy pensando
Keko Yunge
Inolvidable

G C/B G
No sé que pasa que no puedo dormirme sin pensar en ti
D
No sé que pasa que no puedo estar sin mirar atrás

C G/B Am7 G/B


Se me va la vida esperando
C D G D
Que los ángeles del destino te traigan aquí.

G GCG D D9 D
Eres inolvidable, inolvidable como la verdad
Em C G
Inolvidable como tu calor, como tus besos, como tu amor.
D C D
Inolvidable como lo que no se puede olvidar.

G
Tanta esperanza
C G C G
Llevarte siempre adentro
G
Tanta esperanza
D D9 D
Buscarte siempre afuera
C G Am7 G/B
No sólo ayer, también mañana
C D G D
Mientras los años van creciendo junto con mi soledad.

G GCG D D9 D
Eres inolvidable, inolvidable como la verdad
Em C G
Inolvidable como tu calor, como tus besos, como tu amor.
D C D
Inolvidable como lo que no se puede olvidar.

Em D C Bm7 Am7
Escúchame, le he ofrecido al cielo el trozo que me guarda
C D G D
Para que el tuyo sea mayor, eternamente mayor

G GCG D D9 D
Eres inolvidable, inolvidable como la verdad
Em C G
Inolvidable como tu calor, como tus besos, como tu amor.
D C D
Inolvidable como lo que no se puede olvidar.
G

73
Inolvidable.
La Mosca Tse-Tse
Para no verte más

C-Em-F-G (Punteado)G-F-C-G7-C

C
Cuando no tengas donde ir
Em
cuando te sangre la nariz
F
cuando te duela la cabeza
G
y se termine esa cerveza.
C
Cuando las alas de tu avion
Em
se derritan sin razon
F
y el cancer de la soledad
G
ya se ha matado en la ciudad

CORO
C
yo rompere tus fotos
Em
yo quemare tus cartas
F G
para no verte mas, para no verte mas.

C
Y si logras sobrevivir
Em
al refusillo de maldad
F
preguntaras en donde estas
G
preguntaras que te paso
C
Me voy a poner a fumar
Em
sin preocuparme nada mas
F
total ya es tarde pa´ volver
G
total ya es tarde pa´ soñar.

CORO
C
yo rompere tus fotos Para terminar repetir
Em disminuyendo el

74
yo quemare tus cartas volumen gradualmente.
F G
para no verte mas, para no verte mas.
La Mosca Tse-Tse
Yo te quiero Dar

LA
Todos los dias hueveando en esa esquina
SIM
Tomando porquerias para sentirte bien.
LA
Las alegrias que alguna vez tuviste
MI LA
Se fueron por el caño y nadie te avisó.
RE LA
Tan solo ella te vuela la cabeza
MI LA
Te vuelca la cabeza y te para el corazon.
RE LA
Con ese humo, ese maldito humo
MI
Transforma en esperanza tu
LA
Desesperacion.

LA
Por eso yo te quiero dar
SIM
Algo de corazón
MI
Iremos a festejar
LA
Hasta que el mundo se abra en dos

LA
Toda la noche, casi todas las noches
SIM
Pensas que a la mañana todo estara mejor
LA
Pero la vida te trata como el culo
MI
Sabes que no hay futuro
LA
Solo hay tiempo que perder
RE LA
Habra que ir juntando pedacitos
MI LA
Armando despacito un sueño para soñar
RE LA
Las primavera sera para cualquiera
MI
Y pobre del que quiera robarnos la
LA
Ilusión.

75
La Oreja de Van Gogh
20 de Enero
Do Fa Do
Pensé que era un buen momento,
Fa Sol Lam
por fin se hacía realidad,
Fa Sol Lam
tanto oír hablar de tu silencio,
Fa Sol Do
dicen que te arrastra como el mar.

Do Fa Do
Llené de libros mi maleta,
Fa Sol Lam
también de fotos tuyas de antes,
Fa Sol Lam
dibujé tu sonrisa junto a la mía,
Fa Sol Do
me dormí con tu abrigo en el sofá.

Mi Lam
PRE-ESTRIBILLO

Quiero estar a tu lado,


Fa Do
quiero mirarte y sentir,
Mi Lam
quiero perderme esperando,
Fa Sol
quiero quererte o morir...

Do Fa Do
y en el momento que vi tu mirada buscando mi cara,
ESTRIBILLO

Lam Mim Sol


la madrugada del 20 de enero saliendo del tren,
Fa Do
me pregunté que sería sin ti el resto de mi vida,
Lam Sol Fa
y desde entonces te quiero, te adoro y te vuelvo a querer.

Do Fa Do
Cogí un tren que no dormía,
Fa Sol Lam
y vi tu cara en un cristal,
Fa Sol Lam
era un reflejo del sol de mediodía,
Fa Sol Do
era un poema de amor para viajar.

(PRE-ESTRIBILLO + ESTRIBILLO)

Do Sol Lam Mim


Te perdí y no te perderé,
Fa Do Sol
nunca más te dejaré.
Do Sol Lam Mim

76
Te busqué muy lejos de aquí,
Fa Do Sol
te encontré pensando en mí.

(ESTRIBILLO)
La Oreja de Van Gogh
Deseos de cosas imposibles

Esta canción va con un capo o cejillo en el segundo traste, para su tono original (SI O B)

Intro: LA-Lasus4-LA-Lasus4

LA MI Fa#m MI
Igual que el mosquito más tonto de la manada
RE MI LA Lasus4
yo sigo tu luz aunque me lleve a morir
DO Fa#m MI
te sigo como les siguen los puntos finales
RE MI LA Lasus4
a todas las frases suicidas que buscan su fin
LA MI Fa#m MI
Igual que el poeta que decide trabajar en un banco
RE MI LA Lasus4
sería posible que yo en el peor de los casos
DO Fa#m MI
le hiciera una llave de judo a mi pobre corazón
RE LA MI
haciendo que firme llorando esta declaración

RE MI LA
Me callo porque es más cómodo engañarse
RE MI Fa#m
me callo porque ha ganado la razón al corazón
SI MI
pero pase lo que pase
SI MI
y aunque otro me acompañe
RE MI LA
en silencio te querré tan solo a ti

LA MI Fa#m MI
Igual que el mendigo cree que el cine es un escaparate
RE MI LA Lasus4
igual que una flor resignada decora un despacho elegante
DO Fa#m MI
prometo llamarle amor mío al primero que no me haga daño
RE MI LA Lasus4
y reír será un lujo que olvide cuando te haya olvidado

LA MI Fa#m MI
Pero igual que se espera como esperan en la plaza de mayo
RE MI LA Lasus4
procuro encender un secreto una vela no sea que por si acaso
DO Fa#m MI

77
un golpe de suerte algún día quiera que te vuelva a ver
RE LA MI
reduciendo estas palabras a un trozo de papel
RE MI LA
Me callo porque es más cómodo engañarse
RE MI Fa#m
me callo porque ha ganado la razón al corazón
SI MI
pero pase lo que pase
SI MI
y aunque otro me acompañe
RE MI
en silencio te querré tan solo...

RE MI LA
Me callo porque es más cómodo engañarse
RE MI Fa#m
me callo porque ha ganado la razón al corazón
SI MI
pero pase lo que pase
SI MI
y aunque otro me acompañe
RE MI
en silencio te querré
RE MI
En silencio te amare
RE MI LA
En silencio pensare tan solo en ti.

LA Lasus4 MI Fa#m RE DO
XX____/ X_____/ ______/ ______/ X_____/ X_____/
1|||||| 1|||||| 1|||||| 1|||||| 1|||||| 1||||||
(CAPO) (CAPO) (CAPO) (CAPO) (CAPO) (CAPO)
||000| |||00| |||0|| |||||| |||0|0 OOOOOO
|||||| ||||0| |00||| |00||| ||||0| |||0||
|||||| |||||| |||||| |||||| |||||| ||0|||
||||0|
SI
X_____/
1||||||
(CAPO)
||||0|
||00||

78
La Oreja de Van Gogh
Dulce Locura

Sim Fa#m
Vendo el inventario de recuerdos de la historia
Sol re
más bonita que en la vida escuché
Sim Fa#m
Vendo el guión de la película más triste
Sol La
y la más bella que en la vida pude ver

Sim Fa#m
Vendo los acordes, la brillante melodía
Sol re
y la letra que en la vida compondré
Sim Fa#m
Vendo hasta el cartel donde se anuncia el estreno
Sol La
del momento que en la vida viviré

Mim Sim
Entiendo que te fueras, y ahora pago mi condena
Do# Fa# Fa#7
pero no me pidas que quiera vivir

Sim Sol Re
Sin tu luna, sin tu sol sin tu dulce locura
La Sol
me vuelvo pequeña y menuda,
La Re
la noche que sueña y se burla
Sol Fa# Sim
te intento abrazar y te esfumas

Sim Fa#m
Vendo una cámara gastada que captaba
Sol La
la mirada que en la vida grabaré
Sim Fa#m
Vendo dos entradas caducadas que eran
Sol La
de segunda fila que en la vida romperé

Sim Fa#m
Vendo dos butacas reservadas hace siglos
Sol La
y ahora caigo que en la vida me senté
Sim Fa#m
Vendo hasta el cartel donde se anuncia el estreno
Sol La

79
del momento que en la vida viviré
Mim Sim
Entiendo que te fueras, y ahora pago mi condena
Do# Fa# Fa#7
pero no me pidas que quiera vivir

Sim Sol Re
Sin tu luna, sin tu sol sin tu dulce locura
La Sol
me vuelvo pequeña y menuda,
La Re
la noche que sueña y se burla
Sol Fa#
te intento abrazar

Sim Sol Re
Sin tu luna, sin tu sol sin tu dulce locura
La Sol
llorando como un día de lluvia
La Re
mi alma despega y te busca
Sol Fa# Sim
en un viaje del que no vuelve nunca

Sim Sol La Sol Re


Subiré cada noche a buscar a tu luna en mi tejado
Fa# Sim Sol La
el recuerdo de un abrazo que me hace tiritar

Rem La# Fa
Sin tu luna sin tu sol sin tu dulce locura
Do La#
me vuelvo pequeña y menuda
Do Fa La# la
la noche que sueña y se burla te intento abrazar

Rem La# Fa
Sin tu luna sin tu sol sin tu dulce locura
Do La#
llorando como un día de lluvia
Do Fa
mi alma despega y te busca
La# la Rem
en un viaje del que nunca volverá

80
La Oreja de Van Gogh
La Playa
E|------------------------------------------------------|
A|------------------------------------------------------|
INTRO D|----------------6---7-6-------------------------------|
G|-7------7-9----7---7----9-7-6-----------7--9------6/7-|
La-Mi-Fa#m-Re - La-Mi B|------7-------7---7-----------9-7-----7-------5/7-----|
E|------------------------------------------------------|
La Mi
No sé si aun me recuerdas,
Fa#m Re
nos conocimos al tiempo,
La
tú, el mar y el cielo
Mi
y quien me trajo a ti.

La Mi
Abrazaste mis abrazos,
Fa#m Re
vigilando aquel momento
La
aunque fuera el primero
Mi
y lo guardara para mi.

Re La Do# Fa#m
Si pudiera volver a nacer
Re Mi La Do#
te vería cada día amanecer,
Re Rem La Mi
sonriendo como cada vez,
Re Mi La-La7
como aquella vez...

Re
Te voy a escribir
La
la canción más bonita del mundo,
Do#
voy a capturar nuestra historia
Fa#m
en tan sólo un segundo,
Re La
y un día verás que este loco
Mi
de poco se olvida,
Re La
por mucho que pasen los años
Mi
de largo en su vida. E|------------------------------------------------------|
A|------------------------------------------------------|
INTRO D|----------------6---7-6-------------------------------|
G|-7------7-9----7---7----9-7-6-----------7--9------6/7-|
La Mi B|------7-------7---7-----------9-7-----7-------5/7-----|

81
El día de la despedida E|------------------------------------------------------|
Fa#m Re
de esta playa de mi vida,
La
te hice una promesa:
Mi
volverte a ver así.

La Mi
Más de cincuenta veranos
Fa#m Re
hace hoy que no nos vemos
La
ni tú, ni el mar, ni el cielo
Mi
ni quien me trajo a ti.

Re La Do# Fa#m
Si pudiera volver a nacer,
Re MI La Do#
te vería cada día amanecer,
Re Rem La Mi
sonriendo como cada vez,
Re Mi La-La7
como aquella vez...

Re
Te voy a escribir la canción
La
más bonita del mundo,
Do#
voy a capturar nuestra historia
Fa#m
en tan sólo un segundo,
Re La
y un día verás que este loco
Mi
de poco se olvida,
Re La
por mucho que pasen los años
Mi
de largo en su vida...

Re
Y te voy a escribir la canción
La
más bonita del mundo,
Do#
voy a capturar nuestra historia
Fa#m
en tan sólo un segundo,
Re La
y un día verás que este loco
Mi
de poco se olvida,
Re La
por mucho que pasen los años
Mi
por mucho que pasen los años
Re La
de largo en su vida,

82
Mi
su vida...
Re La Mi
su vida...
Re-Mi-La
La Oreja de Van Gogh
Vestido Azul

Intro: Bm / Db7 / Em / F#7

Bm Em A D
Sólo una palabra se hubiera llevado el dolor.
Em F#7
Con el beso amargo de aquel licor,
Em F#7
hubiera bastado, mi amor.
Bm Em G D
Sólo una mentira se viene conmigo a pasear.
Bm Db7 Em F#7
Sentirme querida en aquel abrazo en el mar.

Bm F#
Con el vestido azul que un día conociste
F#7 Bm
me marcho sin saber si me besaste antes de irte.
B7 Em
Te di mi corazón y tú lo regalaste,
A D
te di todo el amor que pude darte y me robaste.
Em Bm
He rasgado mi vestido con una copa de vino,
F#7 Bm
hoy tu amor corta como el cristal.

Em A D
En el cielo hay playas donde ves la vida pasar,
Em F#7
donde los recuerdos no hacen llorar:
Em F#7
vienen muy despacio y se van.
D A Bm Fm#
Sólo una caricia me hubiera ayudado a olvidar
G D Em F# / F#7
que no eran mis labios los que ahora te hacen soñar.

Bm F#
Con el vestido azul que un día conociste
F#7 Bm
me marcho sin saber si me besaste antes de irte.
B7 Em
Te di mi corazón y tú lo regalaste,
A D
te di todo el amor que pude darte y me robaste.
Em Bm
He rasgado mi vestido con una copa de vino,
F#7 Bm

83
hoy tu amor corta como el cristal.
Em Bm
Buena suerte en tu camino yo ya tengo mi destino,
F# F#7 Bm
con mi sangre escribo este final.
La Renga
Balada Del Diablo Y La Muerte
Mim Sol Resus4 La
e|-----0---------------------3s2------------|
b|-----0---------------------3---2----------|
g|-----0-------------------2-2---2----------| X 4
d|-------------0-0h2p0---0-------2-0h2p0----|
a|---2---2p0-----------2---------0-------2p0|
E|-0---------3------------------------------|

Mim Sol
Estaba el diablo mal parado
Re La
en la esquina de mi barrio
Mim Sol
Ahí donde dobla el viento
Re La
y se cruzan los atajos.

Mim Sol
Al lado de el estaba la muerte
Re La
con una botella en la mano,
Mim Sol
me miraban de reojo
Re La
y se reían por lo bajo.

Mim Sol
Y yo que esperaba no se a quien
Re La
al otro lado de la calle del otoño
Mim Sol
una noche de bufanda
Re La
que me encontró desvelado
Mim Sol
entre dientes, oí a la muerte
Re La Si
que decía, que decía así:
La Do
Cuantas veces se abra escapado
Sol Re
como laucha por tirante
La Do
y esta noche que no cuesta nada,
Sol Re
ni siquiera fatigarme

La Do
podemos llevarnos un cordero
Sol Re La
con solo cruzar la calle

Mim Sol

84
Yo me escondí tras la niebla
Re La
y mire al infinito
Mim Sol
a ver si llegaba ese
Re La
que nunca iba a venir.

Mim Sol
Estaba el diablo mal parado
Re La
en la esquina de mi barrio,
Mim Sol
al lado de el estaba la muerte
Re La
con una botella en la mano.

SOLO
e|----------------------------------------12/5---------------------------|
B|----10b12~-11b12-10h8-10~----------------------------------------------|
G|-8b9-----------------------12-11-12-11/9-------------------------------|
D|-----------------------------------------------------------------------|
A|-----------------------------------------------------------------------|
E|-----------------------------------------------------------------------|

e|-----------------------------------------------------------------------|
B|-----------------------------------------------------------------------|
G|-9------8b9~--7------6b7---9-------------------------------------------|
D|--9-7/5--------7-5/4--------9-7/5-7/9---5-7-5-7/9-7-5-7-5--------------|
A|-----------------------------------------------------------------------|
E|-----------------------------------------------------------------------|

e|--------------------------------------------10-------------------------|
B|-------------9/12-15-12--12-10/8-10---8-7-8---10-7-7-8-7---------------|
G|-7/9-12-12-12----------------------------------------------------------|
D|-----------------------------------------------------------------------|
A|-----------------------------------------------------------------------|
E|-----------------------------------------------------------------------|

e|-7h10x12--10/12-12-12-12/5---------------------------------------------|
B|----------------------------10x-12-13-12-10-10-12-13-12-10-10-12-10----|
G|--------------------------------------------------------------------9~-|
D|-----------------------------------------------------------------------|
A|-----------------------------------------------------------------------|
E|-----------------------------------------------------------------------|

e|-12-12-14-15-14-16b17~--12-15-17-17b19-17b19---17-15-17-19-17-15-12-14>>
B|-----------------------------------------------------------------------|
G|-----------------------------------------------------------------------|
D|-----------------------------------------------------------------------|
A|-----------------------------------------------------------------------|
E|-----------------------------------------------------------------------|

e|>>-12------------------------------------------------------------------|
B|------15-12-15-15b17-----17--------------------------------------------|
G|-------------------------16--------------------------------------------|
D|-----------------------------------------------------------------------|
A|-----------------------------------------------------------------------|
E|-----------------------------------------------------------------------|

ARMÓNICA
e|----------------10----12-|
B|-3/5~-5h3-11b12---10~----|
G|-------------------------|
D|-------------------------|

85
A|-------------------------|
E|-------------------------|
Mim Sol
Y temblando como una hoja
Re La
me cruce para encararlos
Mim Sol
y le dije, me parece que esta vez
Re La
me dejaron bien plantado

Mim Sol
Les pedí fuego y del bolsillo
Re La
saque una rama pa´convidarlos
Mim Sol
Y bajo un árbol del otoño
Re La
nos quedamos chamullando.

Mim Sol
Me contaron de sus vidas,
Re La
sus triunfos y sus fracasos
Mim Sol
de que el mundo estaba loco
Re La
y hasta el cielo fue comprado:
Mim Sol
y mas miedo que ellos dos
Re La - Si
me daba el propio ser humano

La Do
y yo ya no esperaba a nadie
Sol Re
y entre las risas del aquelarre
La Do
el diablo y la muerte
Sol Re
se me fueron amigando.

La Do
Ahí donde dobla el viento
Sol Re
y se cruzan los atajos.
La Do
Ahí donde brinda la vida
Sol Re
en la esquina de mi barrio.

[Mim - Sol - Re - La] X 4 Mim

86
La Rue Morgue
Sigues dando vueltas

INTRO:

E||-1-1-3-2-2-7-3-|-1-3-5-7-7-|-10-3-3-2---|
B||-0-0-3-3-3-7-3-|-0-3-3-5-5-|--8-3-3-3---|
G||---------------|-----------|------------|
D||---------------|-----------|------------|
A||---------------|-----------|------------|
E||---------------|-----------|------------|

DO RE SOL
Quise mentir y aquí estoy
DO RE SOL
quise no ser y aún soy
DO RE SOL DO SOL
quise volar con mis sueños pero tu silueta
RE DO
lo desbarató
DO RE SOL
Hace mil años tal vez
DO RE SOL
yo habría sido tu rey
DO RE SOL DO SOL RE DO
luchar con muchos dragones y desde mi trono hacerte el amor
LAm SIm MIm
Dime donde quedo
LAm SIm MIm
ese extraño poder
DO RE SOL DO SOL RE DO
Entrar por una ventana y nunca salirte de mi corazón
MIm SIm LAm RE SOL
debo admitir que todo es muy distinto sin ti

SOL RE DO RE SOL RE DO
Sigues dando vueltas en mi cabeza, dando vueltas (x2)
MIm SIm LAm RE SOL
Debo admitir que todo es muy distinto sin ti

DO RE SOL
Que no me apaguen la luz,
DO RE SOL
que necesito encontrar,
DO RE SOL DO SOL RE SOL
buscar en cada rincón los pedazos del tiempo que vimos crecer
LAm SIm MIm
Y al fin de esto es igual
LAm SIm MIm
Alguno debe llorar
DO RE SOL DO SOL RE DO

87
mentir por última vez y aunque sea un poquito para revivir.
MIm SIm LAm RE SOL
debo admitir que todo es muy distinto sin ti
SOL RE DO RE SOL RE DO
Sigues dando vueltas en mi cabeza, dando vueltas (x2)

E||------------------------------9-10-12----|
B||------------------------10-12------------|
G||----------------9-11-12------------------|
D||--------9-10-12--------------------------|
A||--10-12----------------------------------|
E||-----------------------------------------|

|--12h14-12---b8r7-5---|---5----5--|--9h10h9----------|
|----------------------|---5h7--5--|---------10-------|
|----------------------|-----------|------------9h7h6-|
|----------------------|-----------|------------------|
|----------------------|-----------|------------------|
|----------------------|-----------|------------------|

|----12h14-12---b8r7-5|-----5----5--|--(5)--5----5----||
|---------------------|-----5h7--5--|--(5)--5h7--5----||
|---------------------|-------------|-----------------||
|---------------------|-------------|-----------------||
|---------------------|-------------|-----------------||
|---------------------|-------------|-----------------||

LA MI RE MI LA RE MI
Debo admitir que todo es muy distinto sin ti, dando vueltas.
LA MI RE MI SIm / MI / LA
Debo admitir que todo es muy distinto sin ti.

88
Laura Pausini Em
porque en cada sitio que esté
Las cosas que vives C
no nos queda más que un camino
Am D
F Dm solo habrá dos amigos tan unidos
La amistad es algo que atravieza el alma
Bb C7
es un sentimiento que no se te va Em B7
F Dm cree en mi, no te atrevas a dudar
no te digo como pero ocurre justo G7 A7
Bb C7 todas las cosas que vives
cuando dos personas van volando juntos Am G Em Am
C# Bbm si son sinceras como tu y yo, sabes tu
suben a lo alto sobre la otra gente C D
F# G# que jamás terminarán
como dando un salto en la inmensidad A F#m
F Dm porque en cada sitio que estés
y no habrá distancia, no la habrá D
Gm porque en cada sitio que esté
ni desconfianza si Bm E7 A
C C7 en las cosas que vives yo también viviré
te quedas en mi corazón, ya siempre F#m
porque en cada sitio que estés
D
F Dm porque en cada sitio que esté
porque en cada sitio que estés Bm E7 A
Bb tu me llevas contigo dentro del corazón
porque en cada sitio que esté F#m
Gm C7 F porque en cada sitio que estés
en las cosas que vives yo también viviré D
Dm nos encontraremos unidos
porque en cada sitio que estés Bm E7
Bb uno en brazos del otro, es el destino
nos encontraremos unidos A F#m
Gm C7 porque en cada sitio que estés
uno en brazos del otro es el destino D
porque en cada sitio que esté
Bm E7 A
G Em en las cosas que vives yo también viviré
en la misma calle, bajo el mismo cielo
C D
y aunque todo cambie, no nos perderemos
D# Cm
abre bien los brazos, mandame un aviso
G# Bb
no te quepa duda, yo te encontraré
G Em
no estarás ya solo, yo estaré
Am
continuando el vuelo que
D D7
te lleve con mi corazón, ya siempre

G Em

89
porque en cada sitio que estés
C
porque en cada sitio que esté
Am D G
en las cosas que vives yo también viviré
Led Zeppelin
Stairway To Heaven

E-------5-7-----7-|-8-----8-2-----2-|-0---------0-----|-----------------|
B-----5-----5-----|---5-------3-----|---1---1-----1---|-0-1-1-----------|
G---5---------5---|-----5-------2---|-----2---------2-|-0-2-2-----------|
D-7-------6-------|-5-------4-------|-3---------------|-----------------|
A-----------------|-----------------|-----------------|-2-0-0---0--/8-7-|
E-----------------|-----------------|-----------------|-----------------|

E---------7-----7-|-8-----8-2-----2-|-0---------0-----|-----------------|
B-------5---5-----|---5-------3-----|---1---1-----1---|-0-1-1-----------|
G-----5-------5---|-----5-------2---|-----2---------2-|-0-2-2-----------|
D---7-----6-------|-5-------4-------|-3---------------|-----------------|
A-0---------------|-----------------|-----------------|-2-0-0-------0-2-|
E-----------------|-----------------|-----------------|-----------------|

E-------0-2-----2-|-0-----0----------|---------3-----3-
B-----------3-----|---1-----0h1------|-1-----1---0-----
G-----0-------2---|-----2-------2----|---0---------0---
D---2-----0-------|-3----------------|-----2-----------
A-3---------------|---------0----0-2-|-3---------------
E-----------------|------------------|---------3-------
Intro end.
E---------2-----2-|-0-----0----------|---------------2-|-0-0-0-----------|
B-------1---3-----|---1-----0-1------|-------1-----3---|-1-1-1-----------|
G-----0-------2---|-----2-------2----|-----0-----2-----|-2-2-2-----------|
D---2-----0-------|-3----------------|---2-----0-------|-3-3-3-----------|
A-3---------------|---------0----0-2-|-3---------------|-----------------|
E-----------------|------------------|-----------------|-----------------|
Theres a

E-------5-7-----7-|-8-----8-2-----2-|-0---------0-----|-----------------|
B-----5-----5-----|---5-------3-----|---1---1-----1---|-0-1-1-----------|
G---5---------5---|-----5-------2---|-----2---------2-|-0-2-2-----------|
D-7-------6-------|-5-------4-------|-3---------------|-----------------|
A-----------------|-----------------|-----------------|-2-0-0-----------|
E-----------------|-----------------|-----------------|-----------------|
lady whos glitter buying a heaven When she

E-------5-7-----7-|-8-----8-2-----2-|-0---------0-----|-----------------|
B-----5-----5-----|---5-------3-----|---1---1-----1---|-0-1-1-----------|
G---5---------5---|-----5-------2---|-----2---------2-|-0-2-2-----------|
D-7-------6-------|-5-------4-------|-3---------------|-----------------|
A-----------------|-----------------|-----------------|-2-0-0-------0-2-|
E-----------------|-----------------|-----------------|-----------------|
gets there stores are ord she can get came for

E---------2-----2-|-0-----0---------------|---------3-----3-|-3^2-2-2-------|
B-------1---3-----|---1----1--0-1---------|-1---1-1---0-----|-3---3-3-------|
G-----0-------2---|-----2---------2-------|---0-0-------0---|-2-----2-------|
D---2-----0-------|-3---------------------|-----2-----------|-0-----0-------|
A-3---------------|-----------0------0-2--|-3---------------|-----------0-2-|
E-----------------|-----------------------|---------3-------|---------------|

90
Oooh oooh and shes buying a heaven Theres
E-------0-2-----2-|-0-----------------|---------2-----2-|-0-0-0-----------|
B-----------3-----|---1--1--0 1-------|-1-----1---3-----|-1-1-1-----------|
G-----0-------2---|-----2-------2-----|---0---------2---|-2-2-2-----------|
D---2-----0-------|-3-----------------|-----2---0-------|-3-3-3-----------|
A-3---------------|---------------0-2-|-3---------------|-----------------|
E-----------------|-------------------|-----------------|-----------------|
sign on she wants you know two meanings In a

E-------5-7-----7-|-8-----8-2-----2-|-0---0-----0-----|-----------------|
B-----5-----5-----|---5-------3-----|---1---1-----1---|-0-1-1-----------|
G---5---------5---|-----5-------2---|---------------2-|-0-2-2-----------|
D-7-------6-------|-5-------4-------|-3---------------|-----------------|
A-----------------|-----------------|-----------------|-2-0-0---0--/8-7-|
E-----------------|-----------------|-----------------|-----------------|
tree theres a song times all of our mis given

E--------5-7---7---|----8-------2------|----0-------0----|-----------------|
B-----------5-5-5--|---5-5-----3-3-----|---1--1----1-1---|-0-1-1-------3---|
G------5-----5---5-|--5---5---2---2--2-|--2----2--2---2--|-0-2-2-------0---|
D----7-----6-------|-5-----5-4-----4---|-3-------3-----3-|-------------0---|
A-0-0--------------|-------------------|-----------------|-2-0-0-------2---|
E------------------|-------------------|-----------------|-----------------|

|-3---3-3-3--3--0-0-|-2-------2-------|-3--3-3-3--3--0-0---7-|--5---3---5----
|-1---1-1-1--1--1-3-|-3--3--3---3-0-0-|-1--1-1-1--1--1-1---8-|--7---5---7----
|-2---2-2-2--2--2-2-|-2-----------0-0-|-2--2-2-2--2--2-2---9-|--7---5---7----
|-2---2-2-2--2--2---|---0-------------|-2--2-2-2--2--2-2---0-|-------------0-
|-------------------|-----------------|----------------------|-------------0-
|-------------------|-----------------|----------------------|---------------
Oooh it makes me wonder

|-3---3-3-3--3--0-0-|-2-------2-------|-3--3-3-3--3--0-0---7-|--5---3---5----
|-1---1-1-1--1--1-3-|-3--3--3---3-0-0-|-1--1-1-1--1--1-1---8-|--7---5---7----
|-2---2-2-2--2--2-2-|-2-----------0-0-|-2--2-2-2--2--2-2---9-|--7---5---7----
|-2---2-2-2--2--2---|---0-------------|-2--2-2-2--2--2-2---0-|-------------0-
|-------------------|-----------------|----------------------|-------------0-
|-------------------|-----------------|----------------------|---------------
oooh makes me wonder theres a

------------------|------------------------|-----------------0--|--0--------
---------1------3-|-0h1----------1---------|-------1---------0--|--1--------
-------0------0---|-----2-------2----------|-----0--------0--2--|--2--------
-----2------0-----|---------2--------------|---2--------0----3--|--2--------
-0h3------2-------|-------0----------0--2--|-3--------2------3--|--0---0-2--
------------------|------------------------|-----------------1--|-----------
feeling when look to my spirit leaving in my
whispered all call the tune then the piper will to reason &

----------------|--------------------|----------------0-|--0------|---------
-------1------3-|-0h1---------1------|-------1--------1-|--1------|----1---3
-----0------0---|-----2-----2--------|-----0-------0--2-|--2------|---0---0-
---2------0-----|---------2----------|---2-------0----3-|--2------|--2---0--
-3------2-------|-------0------0--2--|-3-------2------3-|--0--0-2-|-3---2---
----------------|--------------------|----------------1-|---------|---------
thoughts I smoke through voices of looking [goto %]
new day those who forests will laugh - ter

91
|-3--3-3-3--3p-0-0---7-|--5---3---5----|-3--3-3-3--3h-0-0-|-2-----2-2-2-2-0-0-
|-1--1-1-1--1--1-1---8-|--7---5---7----|-1--1-1-1--1--1-3-|-3-----3-3-3-3-0-0-
|-2--2-2-2--2--2-2---9-|--7---5---7----|-2--2-2-2--2--2-0-|-2-----2-2-2-2-0-0-
|-2--2-2-2--2--2-2---0-|----------0----|-2--2-2-2--2--2---|----0--0-----------
|----------------------|-------------0-|------------------|-------------------
|----------------------|---------------|------------------|-------------------
whoah
|-3--3-3-3--3--0-0---7-|--5---3---5----
|-1--1-1-1--1--1-1---8-|--7---5---7----
|-2--2-2-2--2--2-2---9-|--7---5---7----
|-2--2-2-2--2--2-2---0-|----------0----
|----------------------|-------------0-
|----------------------|---------------

------------------|------------------------|-----------------0--|--0--------
---------1------3-|-0h1----------1---------|-------1---------1--|--1--------
-------0------0---|-----2-------2----------|-----0--------0--2--|--2--------
-----2------0-----|---------2--------------|---2--------0----3--|--2--------
-0h3------2-------|-------0----------0--2--|-3--------2------3--|--0---0-2--
------------------|------------------------|-----------------1--|-----------
If theres a bust 'edge row dont its just a Queen
Yes there are go by but and theres still your on

----------------|-3--3-3-3--3--0-0-|-2-----2-2-2-2-----|-3--3-3-3--3--0-7-
-------1------0-|-1--1-1-1--1--1-3-|-3-----3-3-3-3-0-0-|-1--1-1-1--1--1-8-
-----0------0---|-2--2-2-2--2--0-0-|-2--2--2-2-2-2-0-0-|-0--0-2-0--0--0-9-
---2------0-----|-2--2-2-2--2------|----0--0-----------|-2--2-2-2--2------
-3------2-------|------------------|-------------------|------------------
----------------|------------------|-------------------|------------------
and it won der

-5--3--5--|-3--3-3-3--3--0-0-|-2-----2-2-2-2-0-0-|-3--3-3-3--3--0-7-|-5--3--5-
-7--5--7--|-1--1-1-1--1--1-3-|-3--3--3-3-3-3-0-0-|-1--1-1-1--1--1-8-|-7--5--7-
-7--5--7--|-2--2-2-2--2--0-0-|-2--2--2-2-2-2-0-0-|-0--0-2-0--0--0-9-|-7--5--7-
----------|-2--2-2-2--2------|-------------------|-2--2-2-2--2------|---------
--------0-|------------------|-------------------|------------------|--------0
----------|------------------|-------------------|------------------|---------
oooh

------------------|------------------------|-----------------0--|--0--------
---------1------3-|-0h1----------1---------|-------1---------1--|--1--------
-------0------0---|-----2-------2----------|-----0--------0--2--|--2--------
-----2------0-----|---------2--------------|---2--------0----3--|--2--------
-0h3------2-------|-------0----------0--2--|-3--------2------3--|--0---0-2--
------------------|------------------------|-----------------1--|-----------
Your head is wont go the pipers him
Dear lady can blow your stairw whispering wind

wierd time (3/4?)


-----3--------3---|--2---------0-2--|-3----0-2--3--0-2--|---3-3-2---------
---5--------3---4-|--3-------3-3-3--|-3--3-3-3--3--3-3--|---3-3-3-3-------
-5-----5--4-------|--2-------2-2-2--|-2--2-2-2--2--2-2--|---2-2-2-0-------
------------------|-----------------|-0--0-0-0--0--0-0--|---0-0-0-2-------
------------------|-----------------|-------------------|---------3-------
------------------|-----------------|-------------------|-----------------

92
---2-2-2---|---2--2-2--0-0-0-2-|-3-0-2--0-2-|-3-3-3-3-|---2--2-2-0-0-|-0-2-2-0
-3-3-3-3-1-|-1-3--3-3--3-3-3-3-|-3-3-3--3-3-|-3-3-3-3-|-3-3--3-3-3-3-|-3-3-3-3
-0-0-0-0-0-|-0-0--0-0------2-2-|-2-2-2--2-2-|-2-2-2-0-|-0-0--0-0-0-0-|-0-0-0-0
---------2-|-----------0-0-0-0-|-0-0-0--0-0-|-0-0-0-2-|-2------------|--------
---------3-|-------------------|------------|-------3-|--------------|--------
-----------|-------------------|------------|---------|--------------|--------

Bien, aquí es donde empieza el solo. Am - x02210


Incluye los acordes para tocar encima. Am7 - x02010
Fmaj7 - xx3210

Am Am7 Fmaj7
|----------5---------------|------------------8--8-|
|------------8-5-----------|-------------8b10------|
|---7b9----------7-5---7p5-|-----------------------|
|--------------------7-----|-7p5-------------------|
|--------------------------|----8------------------|
|--------------------------|-----------------------|

Am Am7 Fmaj7
|--8b10---8--5 -----8--10-|-8-----------------------5-------|
|---------------8b10-------|---10-8----8h10------------8-5---|
|--------------------------|--------10-----------7b9-------7-|
|--------------------------|---------------------------------|
|--------------------------|---------------------------------|
|--------------------------|---------------------------------|

Am Am7 Fmaj7
|----------------------------|----5------------------------|
|----------------------------|------8-5--------------------|
|-5---7p5------------5---5-5-|----------7-5--7p5-----------|
|---7-----7-5---5-7----7-----|-5------------7----7p5-7p5---|
|-------------7--------------|---------------------------8-|
|----------------------------|-----------------------------|

Am Am7
|---------------------------------------------|
|------------------------------------------13-|
|---------10-------------------12----12-14----|
|------10----12-10----10-12/14----14----------|
|-8/12-------------12-------------------------|
|---------------------------------------------|

Fmaj7
|------------------------15b17-15-12----------------|
|--15b17-15-13--15-13-13-------------15b17-15-13----|
|------------------------------------------------14-|
|---------------------------------------------------|
|---------------------------------------------------|
|---------------------------------------------------|

Am Am7
|----------------------------------------------------------------------------
|-13-15b17b15p13----13-15b17b15p13----13---15b17b15p13----13--15b17b15p13----
|----------------14----------------14------------------14-----------------14-
|----------------------------------------------------------------------------

93
|----------------------------------------------------------------------------
|----------------------------------------------------------------------------
Fmaj7
|----------------------------------------------------------------------------
|-13-15b17b15p13----13--15b17b15p13----13--15b17b15p13----13--15b17b15p13----
|----------------14-----------------14-----------------14-----------------14-
|----------------------------------------------------------------------------
|----------------------------------------------------------------------------
|----------------------------------------------------------------------------

Am Am7 hold bend


|------------------------------------------15b17--|
|-13--15b17b15p13----13---15b17b15p13----13-------|
|-----------------14------------------14----------|
|-------------------------------------------------|
|-------------------------------------------------|
|-------------------------------------------------|
Fmaj7
|-b17b15-12---12--------------------------------15--|
|-----------15---15--13----13-15-13---13--15b17-----|
|-----------------------14----------14--------------|
|---------------------------------------------------|
|---------------------------------------------------|
|---------------------------------------------------|

* este slice es otro riff de guitarra


y en realidad es tocado en la 1ª cuerda.
------8/7---8/5----
/
Am Am7 /---------\ Fmaj7
-----------------------------|-----------17----------------------------------
-15b17b15p13----13/12--13/10-|--------20----20-20----------------------------
-------------14--------------|--19b21-21----------19b21b19p17---19--17----19-
-----------------------------|--------------------------------19-------19----
-----------------------------|-----------------------------------------------
-----------------------------|-----------------------------------------------
Am Am7 Fmaj7 Am Am7
|--------------------|--------------------------------|--------------|
|--------------------|--------------------------------|--------------|
|-19b21--13/12 13/10-|--14b17--14b17-14--12--14--12-12b14------------|
|--------------------|--------------------------------|--------------|
|--------------------|--------------------------------|--------------|
|--------------------|--------------------------------|--------------|
Fmaj7 Am Am7
|-----------------------------------|----------8/7--8/5--|
|-----------------------------------|--------------------|
|-10b14----10b12b10-9-7----7--------|-7-9-7--------------|
|-----------------------10----10----|-------10-7---------|
|-----------------------------------|--------------------|
|-----------------------------------|--------------------|

Fmaj7
|----20-p17------20-p17------20-p17------20-p17------20-p17-----20b22-|
|-17--------17----------17----------17----------17----------17--------|
|---------------------------------------------------------------------|
|---------------------------------------------------------------------|
|---------------------------------------------------------------------|
|---------------------------------------------------------------------|

94
Las dos guitarras siguen en esta sección.

Am G F G Am G F G
|-5------------3----------------|-1--3-|-5------------3-------------|--1--3-
|-5------------3----------------|-1--3-|-5------------3-------------|--1--3-
|-5------------4----------------|-2--4-|-5------------4-------------|--2--4-
|-7------------5----------------|-3--5-|-7------------5-------------|--3--5-
|-7------------5----------------|-3--5-|-7------------5-------------|--3--5-
|-5------------3----------------|-1--4-|-5------------3-------------|--1--4-
And as we wind on down the road Our shadows taller than our soul

Am G F G Am G
|-5------------3-------------|-1--3--|-5------------3----------|
|-5------------3-------------|-1--3--|-5------------3----------|
|-5------------4-------------|-2--4--|-5------------4----------|
|-7------------5-------------|-3--5--|-7------------5----------|
|-7------------5-------------|-3--5--|-7------------5----------|
|-5------------3-------------|-1--4--|-5------------3----------|
there walks a lady we all know who shines w' light and to

F G Am G
--1-----------------------3--|-------------------------------
--1-----------------------3--|-------------------------------
--2-----------------------4--|-------------------------------
--3-----------------------5--|-------------------------------
--3----------3--5h7--5--3-5--|-------------------------------
--1----1-3h5--------------3--|-5---5--------3--3-------------
show how everything still turns to

Am G F G Am G
|---------------------5------------3-------------|-1--3--|-5------3----------
|---------------------5------------3-------------|-1--3--|-5------3----------
|---------------------5------------4-------------|-2--4--|-5------4----------
|---------------------7------------5-------------|-3--5--|-7------5----------
|-------3--5h7--5--3--7------------5-------------|-3--5--|-7------5----------
|-1-3h5---------------5------------3-------------|-1--4--|-5-5----3--3-------
gold and if you listen very hard the tune will come to u at

F G Am G F
|--1------------------------|----------0-|---0-0-0-0-----
|--1------------------------|----------1-|---1-1-1-1-----
|--2------------------------|----------2-|---2-2-2-2-----
|--3------------------------|----------3-|---3-3-3-3-----
|--3----------3--5h7--5--3--|------------|---------------
|--1----1-3h5---------------|-5-5--3-3-1-|-1----------5-5
last when all __ yeah

Am G Fmaj7 Am Am7/G Fmaj7


|-----------0-|-0-0-0-0------|--------8-10-----|-------------------------
|-----------1-|-1-1-1-0------|-8/10--------10--|--8h10p10----------3-3---
|-----------2-|-2-2-2-0------|-----------------|-----------------5b7-2---
|-----------3-|-3-3-3-0------|-----------------|---------------------3---
|-------------|--------------|-----------------|-------------------------
|-5-5--3-3--1-|--------------|-----------------|-------------------------
to be a rock roll__

95
Am Am7/G Fmaj7 Am Am7/G
----------------------0--|-------------------|-------------------------
----5-------8------10-3--|-----13-------12---|-----13------12------13--
--7b9----10b12--12b14-0--|--15b17----14b16---|--15b17---14b16---15b17__
----------------------0--|-------------------|-------------------------
-------------------------|-------------------|-------------------------
-------------------------|-------------------|-------------------------
Fmaj7
|------------------------------------------
|-13------12-------13------15--------------
__17---14b16----15b17---17b19--------------
|------------------------------------------
|------------------------------------------
|------------------------------------------
slow
Am Am7/G Fmaj7
----------------------|-0---------------------------------------------
----13------12-----15-|-1----13---------------------------------------
-15b17---14b16--17b19-|-2-15b17---------------------------------------
----------------------|-3---------------------------------------------
----------------------|-----------------------------------------------
----------------------|-----------------------------------------------
And shes buying a stairway to heaven...

Esta versión es solo de Letra y Acordes.

Am G/B C D
There's a lady who's sure all that glitters is gold
Fmaj7 G Am
and she's buying a stairway to heaven
Am G/B C D
When she gets there she knows if the stores are all closed
Fmaj7 G Am
with a word she can get what she came for
C D Fmaj7 Am C G D
Oh oh and she's buying a stairway to heaven
C D Fmaj7 Am
There's a sign on the wall but she wants to be sure
C D Fmaj7
cause you know sometimes words have two meanings
Am G# C D
In a tree by the brook there's a songbird who sings
Fmaj7 G Am
Sometimes all of her thoughts are misgiven

Am G/B C D Fmaj7 G Am
G/B Am7 Dsus4
D Am7 A7sus Dsus D C D
Oh it makes me wonder
Am7 Dsus4 D Am7 A7sus Dsus D C D
Oh it makes me wonder

C G Am
There's a feeling I get when I look to the west
C G F Am
and my spirit is crying for leaving
C G Am
In my thoughts I have seen rings of smoke through the trees

96
C G F Am C G Am7 A7sus Dsus4
and the voices of those who stand looking
D Am7 A7sus Dsus D C D
Oh it makes me wonder
Am7 Dsus4 D Am7 A7sus Dsus D C D
Oh it really makes me wonder
C G Am
And it's whispered that soon if we all call the tune
C G F Am
then the piper will lead us to reason
C G Am
And the new day will dawn for those who stand long
C G F Am
and the forest will echo with laughter

Solo
C G
Am7 A7sus Dsus D
Am7 A7sus Dsus D C D
Am7 A7sus Dsus D
Am7 A7sus Dsus D C D

C G Am
If theres a brustle in your hedgerow dont be alarmed now
C G F Am
it's just a spring clean for the May queen
C G Am
Yes there are two paths you can go by but in the long run
C G F Am
there's still time to change the road you're on
C G

Am7 A7sus Dsus D Am7


Ohh And it makes me wonder
A7sus Dsus D C D Am7 A7sus Dsus D Am7 A7sus Dsus D C D

C G Am
Your head is humming and it wont go in case you dont know
C G F Am
the pipers calling you to join him
C G Am
Dear lady can you hear the wind blow and did you know
C G F Am
your stairway lies on the whispering wind

C G D D D D Dsus D D D Dsus D D D Dsus Dsus D C G

Am G F G
And as we wind on down the road
Am G F G
Our shadows taller than our soul
Am G F G
There walks the lady we all know
Am G F G
Who shines white light and wants to know
Am G F G
how everything still turns to gold
Am G F G
And if you listen very hard
Am G F G
the time will come to you at last
Am G F G
When all are one and one is all
Am G F G
To be a rock and not to roll
Am G F G
Am G F G

97
Am G F G Am

Asus4 AmAsus2 Asus Am


Fmaj7 G Am
And she's buying a stairway to heaven
Los Auténticos Decadentes
Era Muda

E |--------------------2--|
B |-----3-----3-----3--3--|
G |-2-4---2-4---2-4----2--|
D |--------------------0--|
A |-----------------------|
E |-----------------------|

D F#m G
Salio apurada de su casa
A
con su pollera corta
D F#m G
el la esperaba en al parada
A
hacia mas de una hora

F#m D
y no le dijo nada
F#m D
ella quería pasarla bien
F#m D
y no le dijo nada
Bm G
y se tomaron el 10

D F#m G A
Saco boleto doble hasta Palermo
D F#m G A
Ella lo miro y creía comprenderlo

F#m D F#m D
Y no le dijo nada, ella quería pasarla bien
F#m D Bm G
Y no le dijo nada, Y se bajaron del 10

D F#m G
Y era de noche y la abrazaba ( y no le dijo nada)
A
Sintió su mano en la espalda ( y no le dijo nada)
D F#m G
La acariciaba despacito ( y no le dijo nada)
A
Y de repente llego tito {q cagada}

D F#m G
No le dijo, No le dijo
A
No le dijo, No le dijo nada
D F#m G
Nunca dijo, Nunca dijo

98
A
Nunca dijo, nunca dijo nada
D F#m G F Dm
en el verano fueron juntos Era muda, Era muda
A A# C
fueron juntos a la playa Era muda, La mina era muda
D F#m G
el le gustaba ir a las rocas
A F Dm
y ella nunca se negaba, y Nunca dijo, Nunca dijo
A# C
F#m D F#m D Nunca dijo, Nunca dijo nada
no le dijo nada, ella quería pasarla bien F Dm
F#m D Bm G Dijo no le dijo nunca nunca dijo no!
no le dijo anda, ya no se portaban bien A# C
Nunca dijo nada
D F#m G A F Dm
y la llevo a su cueva entre las rocas No le dijo, No le dijo
D F#m G A A# C F
tenia un colchón vino y vodka No le dijo, No le dijo nada

F#m D F#m D
y no le dijo nada, ella quería pasarla bien
F#m D Bm G
y no le dijo nada y nunca se portaban bien

D F#m G A
Y era de noche y la abrazaba ( y no le dijo nada)
D F#m G A
Sintió su mano en la espalda ( y no le dijo nada)
D F#m G A
La acariciaba despacito ( y no le dijo nada)
D F#m G A
Y de repente llego tito {q cagada}

D F#m G
No le dijo, No le dijo
A
No le dijo, No le dijo nada
D F#m G
Nunca dijo, Nunca dijo
A
Nunca dijo, nunca dijo nada
D F#m G
dijo no le dijo nunca nunca dijo no!
A
Nunca nunca dijo nadaa
D F#m G
No le dijo, No le dijo
A
No le dijo, No le dijo nada

F C C#m Dm
Un día charlando se dio cuenta
A# F
Que ella nunca decía nadaaa! ye ye
F C C#m Dm

99
Un día charlando y con mucha ternura
Dm A#
Le dijo le dijo
C
Nena vos sos muda
Los Iracundos CORO
D7 Gm C
Puerto Montt Puerto Montt, oh oh!
F A#
Puerto Montt, oh oh!
Dm Gm G A Dm D7
Sentados frente al mar Me alejé de tí sin saber por qué
C F Gm C F A#
Mil besos yo le dí, Y yo la dejé, sola frente al mar,
Bb Gm Gm A Dm
Después le dije adiós Bajo el cielo azul, de Puerto Montt..
A#
Todo termina aquí
A
Y ella me dijo así.

Dm Gm
Abrázame y verás
C F
Que el mundo es de los dos,
Bb Gm
Salgamos a correr,
A#
Busquemos el ayer,
A Dm
Que nos hizo felíz.

CORO
D7 Gm C
Puerto Montt, oh oh!
F A#
Puerto Montt, oh oh!
G A Dm D7
Me alejé de tí sin saber por qué
Gm C F A#
Y yo la dejé, sola frente al mar,
Gm A Dm
Bajo el cielo azul, de Puerto Montt.

Dm Gm
Mil violines en su voz
C F
Susurraron un adiós
Bb Gm
De un amor que se quedó
A#
Perdido frente al mar
A Dm
Y el viento lo llevó.

Dm Gm
Silencio sin piedad
C F
Encontraré al volver
Bb Gm
Más en la soledad

100
A#
Su voz me gritará
A
No, no, no te vayas de mí.
Los Jaivas
Mira niñita
INTRO
FA FA FA... (6)
e|-------------------------------------|
B|--1---1------1---1-----0---0---------|
G|----------2----------2---------2-----|
D|----3---3------3---3-----3---3-------|
A|-------------------------------------|
e|--1----------1---------1-------------|
FA FA FA FA
e|--------------------------------------------|
B|--1---1------1---1-----0---0-----1---1------|
G|----------2----------2---------2---------2--|
D|----3---3------3---3-----3---3-----3---3----|
A|--------------------------------------------|
e|--1----------1---------1---------1----------|
C C G G
e|--------------------------------------------|
B|--1---1-----1---1-----0---0-----3---3-------|
G|----------0---------0---------0---------0---|
D|----2---2-----2---2-----0---0-----0---0-----|
A|--3---------3-------------------------------|
e|----------------------3---------3-----------|

FA
Mira niñita, te voy a llevar
DO SOL
A ver la luna brillando en el mar
FA
Mira hacia el cielo y olvida
DO
Ese lánguido temor
SOL
Que fue permanente emoción.....
FA DO SOL
Ay..., fue permanente emoción.
FA
Para la hija de un hombre
DO
Con ojos de cristal
SOL
Y papel sellado en la piel.

INTRO
FA FA FA... (6)
e|-------------------------------------|
B|--1---1------1---1-----0---0---------|
G|----------2----------2---------2-----|
D|----3---3------3---3-----3---3-------|
A|-------------------------------------|
e|--1----------1---------1-------------|
FA FA FA FA
e|--------------------------------------------|

101
B|--1---1------1---1-----0---0-----1---1------|
G|----------2----------2---------2---------2--|
D|----3---3------3---3-----3---3-----3---3----|
A|--------------------------------------------|
e|--1----------1---------1---------1----------|
C C G G
e|--------------------------------------------|
B|--1---1-----1---1-----0---0-----3---3-------|
G|----------0---------0---------0---------0---|
D|----2---2-----2---2-----0---0-----0---0-----|
A|--3---------3-------------------------------|
e|----------------------3---------3-----------|

FA
Mira niñita, te voy a llevar
DO SOL
A ver la luna brillando en el mar.
FA
Mira hacia el cielo y olvida
DO
Ese lánguido temor
SOL
Que fue permanente emoción.....

FA DO SOL
Ay..., fue permanente emoción.
FA
Para la hija de un hombre
DO
Con ojos de cristal
SOL
Y papel sellado en la piel.

SOLO
e|---------------------------------------------------|
B|---------------------------------------------------|
G|--5----4-5-5-5-4h5-4h5-5-4----------4--------------|
D|-----7---------------------7----5-7---5------------|
A|---------------------------------------------------|
e|---------------------------------------------------|

e|---------------------------------------------------|
B|---------------------------------------------------|
G|-----------------7--10-10-10-10-9h10-9h10-9-7------|
D|--7-9-10--7-9-10------------------------------10---|
A|---------------------------------------------------|
e|---------------------------------------------------|

e|---------------------------------------------------|
B|---------------------------------5-5h6h5-----------|
G|-------7--9h10-9h10--9-7-7---5-7---------7-5-7-----|
D|--7-10---------------------------------------------|
A|---------------------------------------------------|
e|---------------------------------------------------|

e|---------------------------------------------------|
B|--5-5h6h5-------5-5h6h5-------5-5h6h5--------------|
G|----------7-5-7---------7-5-7---------7-5----------|

102
D|---------------------------------------------------|
A|---------------------------------------------------|
e|---------------------------------------------------|
e|---------------------------------------------------|
B|---------------------------------------------------|
G|-----7-9-10--9h10-9h10--9-7---7--------7-9-10------|
D|--10-------------------------------10--------------|
A|---------------------------------------------------|
e|---------------------------------------------------|

e|--------------------------------------------------------------------|
B|---------------------------------------9-10^-10^--------------------|
G|--10-10--9h10h9--7-9-10--10/12-12-12-------------10-12-13--13-12-10-|
D|--------------------------------------------------------------------|
A|--------------------------------------------------------------------|
e|--------------------------------------------------------------------|

e|--------------------------------------------------------------|
B|--------------------------------------------------------------|
G|--10 12 13 13 12 10--------10 12 13^-13^--12------------------|
D|----------------------12--------------------------------------|
A|--------------------------------------------------------------|
e|--------------------------------------------------------------|

Luego de este solo de guitarra hay un solo de una ‘Quena’ y de Teclado. A continuación viene esto.

FA
Mira hacia el cielo y olvida
DO
Ese lánguido temor
SOL
Que fue permanente emoción.....
FA DO SOL
Ay..., fue permanente emoción.

FA DO
Ay, tu pelito y tus ojos de miel
FA DO
Pero ya en tu pecho florecerán
SOL
Colores de amor.
FA DO SOL
Florecerán,
FA
tu pelito....
FA DO SOL
Ay, la ternura tendrás para ti, para ti.
FA DO
Florecerán,
FA DO
tu pelito,
FA DO
Pero ya en tu pecho florecerán
SOL
Colores de amor.......

e|---------------------------------------------------|
B|-------------10--------10--------10---13^----------|
G|--10^--10-12-----10-12-----10-12-------------------|

103
D|---------------------------------------------------|
A|---------------------------------------------------|
e|---------------------------------------------------|
Los Jaivas
Todos Juntos

El rasgueo es: MANO ABAJO, PULGAR ARRIBA, MANO ABAJO.

Intro: Lam, DoM, SolM

Lam DoM SolM Lam


Hace mucho tiempo que yo vivo preguntándome.

Lam DoM SolM Lam


Para qué la tierra es tan redonda y una sola no más.

CORO 1:
Lam DoM Rem Lam
Si vivimos todos separados, para qué son el cielo y el mar

Lam DoM Rem Lam


para qué es el sol que nos alumbra si no nos podemos ni mirar.

ESTROFA:
Lam DoM SolM Lam
Cuántas penas que nos van llevando a todos al final.

Lam DoM SolM Lam


Cuántas noches cada noche de ternuta tendremos que dar.

CORO 2:
Lam DoM Rem Lam
Para qué vivir tan separados, si la Tierra nos quiere juntar.

Lam DoM Rem Lam


si este mundo es uno y para todos, todos juntos vamos a vivir.

Intro: Lam, DoM, SolM, Mim

104
Los Picantes G Em C D7
Un mamut chiquitito queria debutar
El Mamut Chiquitito G Em C D7
probaba y probaba y no podia debutar
G Em C D7
G Em C D7(x4) un burro su amigo lo quiso ayudar
G Em C D7
G Em C D7 y con 100 prostitutas lo hizo debutar…
Un mamut chiquitito queria volar
G Em C D7
probaba y probaba y no podia volar Ooooh… y que paso?...
G Em C D7
una palomita su amiga lo quiso ayudar
G Em C D7 G Em C D7
y de un quinto piso lo hizo saltar... Sida, al mamut le dio sida(bis)

G Em C D7
Jejeje… y que paso?... (sin guitarra) Un mamut chiquitito se queria drogar
G Em C D7
probaba y probaba y no se podia drogar
G Em C D7 G Em C D7
Mierda… el mamut se hizo un gato su amigo lo quiiso ayudar
G Em C D7 G Em C D7
mierda(bis) y 10 lineas de coca le hizo probar…

G Em C D7 Ahh!... y que paso!?...


Un mamut chiquitito queria fumar
G Em C D7
probaba y probaba y no podia fumar G Em C D7
G Em C D7 Sobre dosis, el mamut con sobre dosis(bis)
un perro su amigo lo quiso ayudar
G Em C D7
y 500 cigarrillos lo hizo fumar… Y ahora que le paso al mamut???...
se murio???... (sin guitarra)

Y que paso?...
G Em C D7
Se murio, el mamut se murio…
G Em C D7 (x4 aumentando la velocidad del rasgado)
Cancer, al mamut le dio cancer(bis)

G Em C D7
Un mamut chiquitito queria tomar
G Em C D7
probaba y probaba y no podia tomar
G Em C D7
un oso su amigo lo quiso ayudar
G Em C D7
y 6 litros de whisky lo hizo tomar…

Y que paso?...

105
G Em C D7
Cirrosis, al mamut le dio cirrosis(bis)
Los Picantes Sim
Y aunque tu me jurabas
Falso Amor Fa# Sim
un gran amor eterno
Si7
Sim yo te vi de la mano
Te vi por vez primera Mim
Fa# Sim junto a ese maricon
una tarde mi sonjera Mim
Si7 y los pille chanchito
lavando ropa intima Sim
Mim enmedio de las matas
a orillas del sanjon Do#
Mim estabay de rodilla
yo te invite una pilsen Sol Fa#
Sim haciendole un mamon
y tu me la aceptaste
Do# Sim
un orgasmo constante Fui donde el Evaristo
Sol Fa# Fa# Sim
en nuestra relacion a reclamar mi honrra
Si7
por haberme robado
Sim Mim
Nos fuimos pa’ la cancha este nuevo amor
Fa# Sim Mim
a tomarnos la pilsen cojimos los estoques
Si7 Sim
y nos curamos raja y casi nos matamos
Mim Do#
he hicimos el amor el me rajo el paño
Mim Sol Fa#
andabay con la ruler le perfore el pulmón
Sim
y a mi no me importaba Sim
Do# Al ver por el asfalto
el beso del payaso Fa# Sim
Sol Fa# su pancria destrozado
en la boca me quedo Si7
fui a dar a la cana
Mim
Sim por un vulgar amor
Eramos felices Mim
Fa# Sim y desde aqui te digo
paseando por la pobla Sim
Si7 maraca conchetumare
fumandonos un cuete Do#
Mim metete por la raja
en cada basilon Sol Fa#
Mim tu falso amor
hasta que conociste
Sim Mim
al Evaristo Puñar y desde aqui te digo
Do# Sim
el mas pulentamente maraca conchetumare
Sol Fa# Do#

106
de nuestra poblacion metete por la raja
Sol Fa# Sim Fa# Sim
tu falso amor .......maraca
Los Prisioneros secretos que a ti no
a otros dieron de verdad
El Baile de los que esa cosa llamada educacion
1)ellos pedian esfuerzo
Sobran ellos pedian dedicacion
y para que
para terminar bailando
INTRO: C G C F y pateando piedras

1) (CORO)
C G C F
Es otra noche más de caminar 1)la la la la
C G C F la la la la
es otro fin de mes sin novedad
2)
1) Am G
Hey conozco unos cuentos
mis amigos se quedaron F D E
igual que tu sobre el futuro
este año se les acabaron Am G
los juegos los doce juegos hey, el tiempo en que los aprendi
F D E
CORO: fue mas seguro
1)
Unanse al baile de los que sobran 1)
nadie nos va hechar jamas Unanse al baile de los que sobran
nadie nos quiso ayudar de verdad nadie nos va hechar jamas
nadie nos quiso ayudar de verdad
1)
Nos dijerin cuando chicos
jueguen a estudiar
los hombres son hermanos
y juntos deben trabajar
1)
Oias los consejos lso ojos en el profesor
habia tanto sol sobre las cabezas
1)
Y no fue tan verdad
porque esos juegos al final
terminaron para otros con laureles y futuros
y dejaron a mis amigos pateando piedras

(CORO)

2)
Am G
Hey conozco unos cuentos
F D E
sobre el futuro
Am G
hey, el tiempo en que los aprendi
F D E
fue mas seguro

107
1)Bajo los zapatos barro mas cemento
el futuro no es ninguno
de los prometidos en los doce juegos

1)a otros le enseñaron


los Prisioneros
Estrechez de Corazón

C#m B
No te pares frente a mi,
C#m B
con esa mirada tan hiriente
A F#
puedo entender estreches de mente ,
A F#
soportar la falta de experiencia ,
A B
pero no voy aguantar
C#m
estrechez de corazón.

C#m (4 VECES seguidas) B, A, B ….C#m, B, A, B .. F# (7 VECES)G#

C#m B
no vuelvas hablar asi,
C#m B
no rebajes estas relaciones,
A F#
si vivimos de cariño y besos
A G#
no me digas de odios y traiciones,

C#m B
cuantas cosas se dirán
C#m B
en la guerra del amor,
A F#
las palabras son cuchillas
A G#
cuando las manejan orgullos y pasiones

A G# A G#
estas llorando y no haces nada,
A G# A G#
por comprender a nadie excepto a ti,
A G#
oye no voy aguantar,
A G#
tu no puedes demostrar,
A B
oye no voy aguantar
C#m
estrechez de corazón,

C#m B
no destruyas por que si,
C#m B

108
no quieras borrar cada momento,
A F# A
la felicidad no tienes porque incinerarla
G#m
junto al sufrimiento,
C#m B
no te pido nada mas,
C#m B
que valores este amor ,
A F#
que lo guardes en un libro
A G#
y lo atesores cerca de tu corazón,

A G# A G#
tu sabes cuanto se ha querido,
A G# A G#
has abrazado lo mismo que yo,
A G#
hoy no puedes demostrar,
A G#
yo no tengo que aguantar
A B
no, no puedes demostrar
C#m
estrechez de corazón.

C#m F# A C#m (4 veces) ULTIMA- C#m, F#, A, G#


oh oh oh oh tu corazón.

C#m B
no te pares frente a mi ,
C#m B
con esa mirada tan hiriente ,
A F#
pon tu mano en mi pecho
A G#
y reconoce que este latido no se miente.
C#m B C#m B
lastima que sea asi es el juego del amor
A F# A G#
cuando mas parece firme un castillo se derrumba de dolor

A G# A G#
estas llorando y no haces nada,
A G# A G#
por perdonar a nadie excepto a ti,
A F#
estrechez de amor egoísmo
A F#
estrechez de razón no me miras ,
A B
oye no voy aguantar
C#m
estrechez de corazón.

C#m F# A C#m (4 veces) PAUSA


oh oh oh oh tu corazón.

C#m F# A C#m (4 veces)

109
oh oh oh oh tu corazón.
C#m
estrechez de corazón.
Los Rodriguez
Hace Calor

G C D G
Huy huy hu... Ah ah ah... aha ah ah... Huy huy hu...

G F
Hace calor, hace calor, yo estaba esperando que cantes mi canción
C D G

Y que abras esa botella y brindemos por ella, y hagamos el amor en el balcón.

Mi corazón, mi corazón
es un músculo sano pero necesita acción
Dame paz y dame guerra, y un dulce colocón
y yo te entregaré lo mejor

G
Ah ah ah...
F C
Dulce como el vino, salada como el mar, princesa y vagabunda, garganta profunda,
D G
sálvame de esta soledad

G C D G
Huy huy hu... ah ah ah... aha ah ah... Huy huy hu...

Hace calor, hace calor,


yo estaba esperando que cantes mi canción
Y que abras esa botella y brindemos por ella,
y hagamos el amor en el balcón

Mi corazón, mi corazón
es un músculo sano pero necesita acción
Dame paz y dame guerra, y un dulce colocón
y yo te entregaré lo mejor

G
Ah ah ah...
Dulce como el vino, salada como el mar, princesa y vagabunda, garganta profunda,
sálvame de esta soledad

Huy huy hu...


Ah ah ah... aha ah ah... Huy huy hu... G - C - D- G [x2]

Hace calor, hace calor, ella tiene la receta para estar mucho mejor,
sin truco ni prisa, me entrega su sonrisa como una sacerdotisa del amor
Luna de miel, luna de papel, luna llena piel canela dame noches de placer
A veces estoy mal, a veces estoy bien, te daré mi corazón para que juegues
con él.
Ah, ah ah , ah ah ah
Podrían acusarme, ella es menor de edad, iremos a un hotel, iremos a cenar,
pero nunca iremos juntos al altar

110
G C D G
Huy huy hu... Ah ah ah... aha ah ah... Huy huy hu...
Los Rodriguez
La Milonga del Marinero y el Capitán

INTRO: Repite dos veces.

B7 Em B7 Em
E----------------------------------------------
B----------------------------------------------
G-------------0---------------------0----------
D----------1----4-2--------------1----4-2------
A---0-1-2-----------------0-1-2----------------
E-4------------------0--4------------------0---

B7 C B7 Em
E----------------------------------------------
B----------------------------------------------
G-------------0---------4-2-----0--------------
D----------1----4-2----------1----2------------
A---0-1-2------------3-------------------------
E-4--------------------------------------------

B7
El marinero y el capitán
Em
se reunieron en un bar,
B7 Em
y encargaron otra botella de ron.

B7
Ese sería el puerto final,
Em
y lo fue tanto, de verdad,
C B7
que bajo el mar ahora descansan juntos los dos.

Am7 D
Fue por una rubia loca
Em A7 D A7 D
que bailaba sola hasta el amanecer.

B7
Y se movía, pero tan bien,
Em
que fue mirarla y fue perder
C B7
todo por ese cuerpo y esa promesa.

Repite Intro 1 vez.

B7
Ya no era joven pero era audaz
Em

111
y bailaba siempre al compas;
B7 Em
no le importaba que se la echaran a suerte
B7
llego la noche, llego el champagne,
Em
llego la hora de la verdad
C B7
y esa apuesta, al final la gano la muerte.

Am7 D
Fue por una rubia loca
Em A7 D A7 D
que bailaba sola hasta el amanecer.

B7
Y se movía, pero tan bien,
Em
que fue mirarla y fue perder
C B7
todo por ese cuerpo y esa promesa.

Repite Intro 1 vez.


B7 Em B7 Em
E----------------------------------------------
B----------------------------------------------
G-------------0---------------------0----------
D----------1----4-2--------------1----4-2------
A---0-1-2-----------------0-1-2----------------
E-4------------------0--4------------------0---

B7 C B7 Em
E----------------------------------------------
B----------------------------------------------
G-------------0---------4-2-----0--------------
D----------1----4-2----------1----2------------
A---0-1-2------------3-------------------------
E-4--------------------------------------------

SOLO
B7 Em
E------------------------------------------------------
B-----------------------5/7------------------------6/8-
G-4-3-4-5-4-3-4-5-4-3-4------4-3-4-5-4-3-4-5-4-3-4-----
D------------------------------------------------------
A------------------------------------------------------
E------------------------------------------------------

B7 Em
E------------------------------------------------------
B-8-8-8-7--5--4^5^4------------------------------------
G-------------------5-4--3-2----2-3-2------------------
D-----------------------------5-------5-2---5-2---2----
A-----------------------------------------5-----5------
E------------------------------------------------------

B7 Em
E----7------5------3-2---------------------------------
B-----------------------5-4-5-4^5-----5-4-5-5-----5----

112
G-/8----8\6----6\4-----------------4----------3^4------
D------------------------------------------------------
A------------------------------------------------------
E------------------------------------------------------
C B7
E----------------------------------------------|
B----------------------------------------------|
G-4^2^0------------0-3-3--3-2-0----------------|
D-------2-0------2--------------4--1-----------|
A-----------3--3----------------------3-2------|
E----------------------------------------------|

B7
Cuando el barco llega a la ciudad
Em
las mujeres salen y los hombres solos
B7 Em
bajan a los bares, y esa noche todo vale!

B7
Y sientes tu corazon
Em
latir al ritmo de esta milonga
C
que es la milonga
B7 Em
del marinero y el capitan.

Am7 D
Fue por una rubia loca
Em A7 D A7 D
que bailaba sola hasta el amanecer.

B7
Y se movía, pero tan bien,
Em
que fue mirarla y fue perder
C B7
todo por ese cuerpo y esa promesa.

Final como en Intro.


B7 Em B7 Em
E----------------------------------------------
B----------------------------------------------
G-------------0---------------------0----------
D----------1----4-2--------------1----4-2------
A---0-1-2-----------------0-1-2----------------
E-4------------------0--4------------------0---

B7 C B7 Em
E----------------------------------------------
B----------------------------------------------
G-------------0---------4-2-----0--------------
D----------1----4-2----------1----2------------
A---0-1-2------------3-------------------------
E-4--------------------------------------------

113
Los Rodriguez
Palabras más, Palabras menos

A D E A D E A

D E A
Palabras mas o menos, ayer me decías

D E A
palabras mas o menos, que no me quieres

D E A
palabras mas o menos me estas dejando, en cueros

D E
palabras mas, palabras menos

D E A
Palabras mas, palabras mas, palabras menos
D E A
es lo que menos te puedo dar, es lo de siempre
D E A
palabras nuevas, palabras llenas de remordimiento
D E
palabras que se lleva el viento
A
palabras menos, palabras mas.

D E A
Palabras mas, palabras mas, palabras menos
D E A
es lo que mas te puedo dar, es lo de siempre
D E A
palabras viejas, palabras sólo como pasatiempo
D E
palabras que soplan en el viento
A
palabras fáciles de olvidar.

D E A
Palabras mas o menos, las que hoy me duelen
D E A
palabras mas o menos, sentimientos ajenos
D E
palabras mas o menos,
A
palabras que pueden...lastimar
D E
palabras menos, palabras mas...

D E A

114
Palabras mas, palabras mas, palabras menos
D E A
es lo que menos te puedo dar, es lo de siempre
D E A
palabras nuevas, palabras llenas de remordimiento
D E
palabras que se lleva el viento
A
palabras menos, palabras mas.

D E A
Palabras mas, palabras mas, palabras menos
D E A
es lo que menos te puedo dar, es lo de siempre
D E A
palabras viejas, palabras llenas de remordimiento
D E
palabras que se lleva el viento
A
palabras menos, palabras mas...

D E A (4 veces)

D E

(solo guitarra)

D E
Palabras mas!
A F#m
palabras menos...
D E
palabras mas!
A F#m
palabras menos...
D E
Palabras mas!
A F#m
palabras menos...
D E
palabras mas!
A F#m
palabras menos...

D E A

115
Los Rodriguez
Sin Documentos

INTRO
Am E
e -0-0-0-0-1-0-------0--0-0-0-0-1-0-------0----0-0-1-3-
B -------------1---1----------------0---0--------------
G ---------------2--------------------1----------------
D -----------------------------------------------------
A -----------------------------------------------------
E -----------------------------------------------------

F E E7
e --0-0-1-3-1--1-0-0---------------------
B -------------------3-3-1-0-------------
G ---------------------------2-3---------
D ---------------------------------------
A ---------------------------------------
E----------------------------------------

INTRO [Am E F E E7] (X2)

Am E
Dejame atravezar el viento sin documentos
F E E7
que lo hare por el viento que tuvimos
Am E
porque no queda salida porque pareces dormida
F E E7
porque buscando tu sonrisa estaria toda mi vida

F E
Quiero ser el unico que te muerda la boca
F E E7
quiero saber que la vida contigo no va a terminar

Am E
Dejame que te cierre esta noche los ojos
F E E7
y mañana vendre con un cigarro a la cama
Am E
porque no tengo mas intenciones que seguir
F E E7
bebiendo de esta copa que no esta tan rota.

F E
Quiero ser el unico que te muerda la boca
F E E7
quiero saber que la vida contigo no va a terminar

Am Am Am
Porque si, porque si, porque si...
E
porque en esta vida no quiero pasar

116
F E E7
un dia entero sin ti
Am Am Am
Porque si, porque si, porque si...
E
porque mientras espero por ti me muero
F E E7
y no quiero seguir asi
(INTRO)

Am E
Dejame atravezar el viento sin documentos
F E E7
que lo hare por el viento que tuvimos
Am E
porque no queda salida porque pareces dormida
F E E7
porque buscando tu sonrisa estaria toda mi vida

F E
Quiero ser el unico que te muerda la boca
F E E7
quiero saber que la vida contigo no va a terminar

Am Am Am
Porque si, porque si, porque si...
E
porque en esta vida no quiero pasar
F E E7
un dia entero sin ti

Am Am Am
Porque si, porque si, porque si...
E
porque mientras espero por ti me muero
F E E7
y no quiero seguir asi

SOLO

F E
Quiero ser el unico que te muerda la boca
F E E7
quiero saber que la vida contigo no va a terminar
F E
Hay quiero ser el unico que te muerda la boca
F E E7
quiero saber que la vida contigo no va a terminar

Am
Porque si!!
E
porque en esta vida no quiero pasar
F E E7
un dia entero sin ti

Am
Porque si!

117
E
porque mientras espero por ti me muero
F E E7
y no quiero seguir asi...
Am (fin)
Los Tres
Amor Violento

Intro:

mi|------5---------------
si|-----5---7---333233/75-
sol|-----6-----------------
re|-----7-----------------
la|-----7-----------------
MI|--5--5-----------------

LA Sim
(A))Cuando Por Primera Vez te vi

Mi7 La Sim Mi7


supe que el cielo era para ti y para mi

La Sim Mi7 La
y para ti y para mi...

(A)nunca mas podré dormir


nunca mas podré soñar
con nadie que no seas tu

CORO
Do#m Fa#m
gastaré toda mi vida

Do#m Fa#m
en comprar la tuya

Do#m Fa#m
gastaré toda mi vida

mi7
y más.

(intro)
mucho más mucho más

(A)El amor tendrá que esperar un buen rato


para descansar de tu y de mi, de tú y de mi,
de tú y de mi

Coro:
Do#m Fa#m
Gataré toda mi vida
Do#m Fa#m
en comprar la tuya
Do#m Fa#m
gastaré toda mi vida

118
Si La Sol Fa (todos en postura de Mi)
y más, y maaaaas
SOLO
mi799--9--9--9--9---12-12--555-7-99999-14-1212-10-12-14-12-9-9--12-10-10-9--7-5-77-55
Si-----10-10-10-10-14-14-777-9----------------------------10-10-14-12-12-10-9-7-99-77
Sol-----------------------------------------------------------------------------------
Re-----------------------------------------------------------------------------------
La-----------------------------------------------------------------------------------
Mi-----------------------------------------------------------------------------------

mi2020202-0322-00245442202-024544220202452---------------------------
SI-----------------------------------------320------5545454--7757576-
Sol------------------------------------------------------------------
Re-------------------------------------------------------------------
La-------------------------------------------------------------------
Mi-------------------------------------------------------------------

CORO
Do#m Fa#m
Gataré toda mi vida
Do#m Fa#m
en comprar la tuya
Do#m Fa#m
gastaré toda mi vida

Si La Sol Fa (todos en postura de Mi)Mi7


y más, y maaaaas

(para las frases a continuación se toca la intro)


Por que un amor violento nos deslumbro
Un amor violento nos fulminó
un amor violento nos deslumbró
un amor violento nos fulminó

luego termina asi:

mi------------------5-------------
si---999777---------5-------------
sol----------99976--6-------------
re------------------7-------------
la------------------7-------------
Mi------------------5-------------

119
Los Tres F# Em
Las olas ya no mojan
Déjate Caer F# Em
La ira de las rocas
F# Em
Bm Amarrame otra vez
Dejate caer Dm
A Un beso a mi madre
Dejate caer C Bm
Em F# Y dejame caer
La tierra es al reves
Em C Cm - Fm - G (x3)
La sangre es amarilla Cm
Bm
Dejate caer Bm
Mira al cielo ceder
F# Em A
El viento ya no sopla Y a la tierra después
F# Em Em F#
La boca bien cerrada Vuelve a creer
F# Em Em C
Amarrate los pies La sangre es amarilla
Dm Bm
Piensa en tu madre Dejate caer
C Bm
Y dejate caer Bm
Consuelame otra vez
SOLO A
e:-10-10-10-10-10-10-9--10-12-12-12-12 Porque no pienso volver
B:-12-12-12-12-12-12-10-12-14--------- Em F#
G:------------------------------------ El suelo tiene sed
Em C
La vida es imprecisa
e:-10-10-10-10-10-10-12-7/9-9--9--9--10 Bm
B:-12-12-12-12-12-12-14-----10-10-10-12 Dejate caer
G:-------------------------------------

e:-7-7-7-7-7-7-6-7/9--9---7-9--10-9--7 F# Em
B:-8-8-8-8-8-8-7-8-10-10--8-10-12-10-8 Las olas no demoran
G:------------------------------------ F# Em
A mi alma desertora
e:-12-12-14-15-14-12--10-10-9--9--7-7-5-5 F# Em
B:-11-11-15-17-15-11--12-12-10-10-9-9-7-7 Explicalo muy bien
G:--------------------------------------- Dm
Se abre la tierra
e:-3-3-2-2-0-0-0 C Bm
B:-5-5-3-3-2-2-0- El suelo esta a mis pies.
G:----------------
(SOLO)
Bm
Mira al cielo ceder
A
Y a la tierra después
Em F#
Vuelve a creer
Em C

120
La sangre es amarilla
Bm
Dejate caer
Los Tres
He Barrido el Sol

e|--------------------------------------------------------------|
B|--------------------------------------------------------------|
G|---------0-----0-------0-----0-------0-----0------------------|
D|-------0---3>0-------0---3>0-------0---3>0--------------------|x2
A|---1>2-----------1>2-----------1>2-----------2-2-2------------|
E|-3-------------------------------------------3-3-3------------|

e|-----0---3>0---------------0--------------------------------2-|
B|-2>3---3-----3>0-----3-------3------------------------------1-|
G|-----------------3>4---3>4-----4-----0----------------------2-|
D|---------------------------------2-3---3>2>0-----2>0--------0-|
A|---------------------------------------------2>0-----2>0------|
E|---------------------------------------------------------3----|

El siguiente riff, lo puede tocar una segunda guitarra pa no hacer acordes:

e|--3-----2-----0~~-----2-----0-----2~~-----0-------------------|
B|------0-----0-----0-------1---1---------1---1-----------------|
G|----0-----0---------0---2-------2-----2-------2---------------|
D|--------------------------------------------------------------|
A|--------------------------------------------------------------|
E|--------------------------------------------------------------|

e|----3---------2---------3----------7---------7----------7-----3|
B|---0--0-----0---0-----1---1------0---0-----0--0-------0---0---3|
G|--0----0---2-----2--3-------3--7-------7--6----6-----5-----5--4|
D|----------------------------------------------------0---------5|
A|---------2---------3---------------------0--------------------5|
E|0-----------------------------0-------------------------------3|

Intro : G - D7 - G - D7

G D7
He barrido el sol de este lugar

G D7
arrastre el calor del basural

Em* B C E7*
que brillaba sobre ti

A7 D7* G
no se si fue tan asi

G D7
Con mi voz de plata hare temblar
G D7 Em
romper los cristales llorar esperar

B C E7*

121
y en tu cama brillara
A7 D7* G
el sol que no volvera
C Bm Em*
No es tan facil ser feliz

C Bm D
cuando opacaste el barniz

F Em
que pintaste verde azul y gris

F Em
que quitaste a espaldas de mi

F Em D7
que pintaste verde

x2

(Solo de Álvaro Henriquez)

e|------0------0-------5------5---|
B|--------3------3-------7----5---|
G|--3>4-----4~-----5>7-----7--7---|
D|--------------------------------|x2
A|--------------------------------|
E|--------------------------------|

e|-------0--0~---0------7-------8-7-------10-8-----------10-14-|
B|-------12-10~--10-------8---------7----------8------12-------|
G|-10>11---------11---------9-8-------8>9--------9>13----------|
D|------------------7>9----------------------------------------|
A|-------------------------------------------------------------|
E|-------------------------------------------------------------|

e|------------14---10-------------|
B|-10~~ 10-14------10-------------|
G|-----------------11--4-2-0~-----|
D|---------------------4-2-0~-----|
A|--------------------------------|
E|--------------------------------|

(Solo de Ángel Parra)

e|-------------------------------------------------------------------------------------|
B|-3-1-0-3-1-0---1-0-----0---------------------------------------------------0-------0-|
G|-------------3-----2-0---2-0---2-0-----0-----------------------------2-0-3---(3)-4---|
D|-----------------------------4-----4-2---4-2-0-4-2-0---2-0---------------------------|
A|-----------------------------------------------------3-----3-2-0-1>2-----------------|
E|-------------------------------------------------------------------------------------|

e|----0-------------0-2-0--------2-3-2-0---------------------------------------|
B|--------0---0---0-------3-0-0----------4-0---------0-------------------------|
G|--3---3---3---2----------------------------3-2-0-2---2-0-----------0-2-0-----|
D|---------------------------------------------------------4-2-1-2-4-------4-1-|
A|-----------------------------------------------------------------------------|
E|-----------------------------------------------------------------------------|

e|-----------------------------1-------5-------3-------2-------0------0----3-3-0-3-3-0-3-0~-|
B|---------------0------------------------------------------------------3-------------------|

122
G|-----0-2-3-2-0---2<4>2---0-1---6-5-6---6-5-4---4-3-2---2-1-0----3>4-----------------------|
D|-2-4-------------------4------------------------------------------------------------------|
A|------------------------------------------------------------------------------------------|
E|------------------------------------------------------------------------------------------|
G : 3 5 5 4 3 3
G D7 D7 : x 0 0 2 1 2
He barrido el sol de este lugar D7+ : 5 5 7 5 7 5
Em* : 7 7 9 9 8 7
G D7 Em : 0 2 2 0 0 0
arrastre el calor del basural B : 7 9 9 8 7 7
Bm : 7 9 9 7 7 7
Em* B C E7* E7* : 7 7 9 7 9 7
que brillaba sobre ti A7 : 5 7 5 6 5 5
D7* : x 5 4 5 3 x
A7 D7* G Bm : 7 9 9 7 7 7
no se si fue tan asi D : x 0 0 2 3 2
F : 1 3 3 2 1 1
G D7 C : 8 10 10 9 8 8
Con mi voz de plata hare temblar
G D7 Em
romper los cristales llorar esperar

B C E7*
y en tu cama brillara
A7 D7* G
el sol que no volvera

C Bm Em*
No es tan facil ser feliz

C Bm D
cuando opacaste el barniz

F Em
que pintaste verde azul y gris

F Em
que quitaste a espaldas de mi

F Em
que pintaste verde azul y gris

F Em ......( y se deja sonar el Em)


que quitaste a espaldas de mi

Final :

e|-------------------------------------------------------------|
B|-------------------------------------------------------------|
G|-------------------------------------------------------------|
D|-------------------------------------------------------------|x3
A|-------3-3-3-------3-3-3-2-2--------3-3-3-------3-3-3-2-2----|
E|-1-1-1-------1-1-1---------0--1-1-1-------1-1-1---------0----|

e|---------------------------0~-------|
B|---------------------------0~-------|
G|---------------------------0~-------|
D|---------------------------2~-------|
A|-------3-3-3-------3-3-3-2-2~-------|

123
E|-1-1-1-------1-1-1---------0~-------|
Los Tres sexo sin mirar
mi almohada puede mas
La Espada y la Pared que todo tu amor
que vive en mi bolson
la saliba va
INTRO la salida viene atras
(mute with your palm and make fast) corte cerebral
e:-10-9-7-5-4-0---3-2-1-0------ el principio es al final

INTRO II
PUENTE
e:-10-10-9--b7-b7-0 A
B:-12-12-10-b8-b8-0 consome
G:----------------- deja ya un pastel
D:----------------- dulce miel de telarania
A:----------------- consome
E:----------------- dulce miel
D A B
e:-10-10-9--7-0 lo endulza sin picar
B:-12-12-10-8-0
G:------------- D F#m Bm D G C Bm A
D:-------------
A:-------------
E:------------- CORO
D F#m Bm D
Verse I: la espada y la pared
E G C Bm A
habla sin pensar me atraviesan y no al reves
defensa sin hablar
servicio militar D F#m Bm D
muerte cerebral la espada y la pared
cerrar sin abrir G C Bm A
una sonda feliz me atraviesan y no al reves
deja todo nuestro fin
(INTRO II)
(INTRO II) repeat just some:
e:------
Verse II: B:-----5
E G:-7/9--
tirar sin lanzar D:------
aun no llega el dolor A:------
y eso es lo peor E:------
muerto vivo mejor
tirar sin lanzar Verse III:
aun no llega el dolor E
y eso es lo peor triangulo de amor
muerto vivo mejor bermuda del dolor
disparo al corazon
A ? burbuja de terror
(INTRO II) caida sin saltar
estruendo sin igual
Verse III: palabras al pasar
E no hay forma de frenar
triangulo de amor sexo sin mirar
bermuda del dolor mi almohada puede mas
disparo al corazon que todo tu amor

124
burbuja de terror que vive en mi bolson
caida sin saltar la saliba va
estruendo sin igual la salida viene atras
palabras al pasar corte cerebral
no hay forma de frenar el principio es al final
SOLO
2x:
e:------------------------b7-b7-b7-b7
B:-----5-----5-----5------b8-b8-b8-b8
G:-7/9---7/9---7/9---7/9--------------
D:------------------------------------
A:------------------------------------
E:------------------------------------

then:
e:-----------------------------
B:--10-8---10-8----------------
G:-------9------9---9-8-7-4----
D:--------------------------5~~
A:-----------------------------
E:-----------------------------

e:------------------------------------
B:---------------------5------5------5
G:------5-7-7p5-7p5-7/9----7/9---7/9--
D:--5-7-------------------------------
A:------------------------------------
E:------------------------------------

e:-10-9--7-5-4-3---7/13-13-12-11-10-9---------
B:-12-10-9-7-5-5---9/15-15-13-13-12-10--------
G:--------------------------------------------
D:--------------------------------------------
A:---------------------------------------0-2-4
E:--------------------------------------------

D F#m Bm D G C Bm A

CORO
D F#m Bm D
la espada y la pared
G C Bm A
me atraviesan y no al reves

D F#m Bm D
la espada y la pared
G C Bm A
me atraviesan y no al reves

D F#m Bm D G C Bm A

D F#m Bm D
la espada y la pared
G C Bm A
me atraviesan y no al reves

D F#m Bm D
la espada y la pared
G C Bm A
me atraviesan y no al reves

D F#m Bm D G C Bm A

125
Los Tres
Torre de babel

INTRO
El rasgueo de la guitarra de Alvaro Henriquez es medio complicado pero escuchándolo bien lo sacarán. Durante
toda la canción son los mismos acordes (LA-SOL)

Primera Guitarra:
E/-------9-7--------9-7---------10/9/10/9/10/9/10/9-7-9----|
B/---------------------------------------------------------|X4
G/--4h9-------4h9---------4h7------------------------------|
D/---------------------------------------------------------|
A/---------------------------------------------------------|
E/---------------------------------------------------------|

Luego... Segunda Guitarra: Nota: si un amigo con una


Rasguea La-Sol tercera guitarra anda por
ahi podria hacer esto en las
La Sol La estrofas(casi como un bajo):
En la torre de babel vivian 50 cigarros E/-------------------------|
La Sol La B/-------------------------|
Vivian amontonados hechos todos de papel G/-------------------------|
RIFF 2 (mientras se canta la estrofa) D/-------------------------|
La La Sol A/---7---7---5---5---5-6-7-|
Uno a uno alineados, todos muy bien formados E/-----7---7---5---7-------|
La Sol La
el mas pequeño era aquel y se llamaba Gabriel

INTRO X2 RIFF 2
La Sol La Primera Guitarra Solamente(con un redoble de uñeta)
E/-----------------------------------------------|
Tabaco fino algodones, iban a ver el rio B/-----------------------------------------------|
La Sol La G/----------------0------------------------------|
Iban cantando canciones, muertos de frio D/----------2-1-2---2-1-2------------------------|
RIFF 2 (mientras se canta la estrofa) A/--------0-------------------5-4-----7-6--------|X2
E/-0-3-4-------------------3-------5-------------|
LA Sol La
La pasion de Gabriel era nadar en el rio
La Sol La
Le conto de esto a su tio que era un cigarro de miel

RIFF 3
Guitarra 1:
E/---------------------5-----4-----------|
B/---------------------4-----5-----------|X2
G/-2-4-5-7-5h7-4-5-4---5-----4-----------|

E/---------------------------------------|
B/--6---6--5---5--4---4--3---3---3-5-----|
G/----5------4------3------5---5---------|

Guitarra 2:
D/-------------3-0-2-0-------------------|
A/--0-3---3-2----------3-2-0-------------|X2
E/------1--------------------------------|

126
D/--3---3--2---2--1---1--0---0---0-2-----|
A/----3------2------1------3---3---------|
E/---------------------------------------|

(INTRO)
La Sol La
Su tio que era muy viejo no le puso reparos
La Sol La
y cuando llego el habano forrado entero de cafe
RIFF 2 (mientras se canta la estrofa)
La Sol La
Donde se metio Gabriel pregunto inquieto el habano
La Sol La
Se fue con otros cigarros a ver el rio correr
RIFF 2 (mientras se canta la estrofa)
La Sol La
No lo puedo creer!!! eres muy mal ciudadano
La Sol La
Pues tu sobrino y hermano tal vez nunca pueda volver
RIFF 2
Primera Guitarra Solamente(con un redoble de uñeta)
RIFF 3 E/-----------------------------------------------|
B/-----------------------------------------------|
luego un D7 G/----------------0------------------------------|
D/----------2-1-2---2-1-2------------------------|
A/--------0-------------------5-4-----7-6--------|X2
Punteo... E/-0-3-4-------------------3-------5-------------|
1/--9-9---7------------------------------------------------|
2/-8-8-8-6-6--6/4---4--------------------------------------|
3/----------------6----------------------6/4---------------|
4/---------------------r5-r5-r5-r5-r5-r5-----r5-r3-r3-r3---|
5/---------------------------------------------------------|
6/---------------------------------------------------------|

1/----------------------------------------------------| RIFF 1
2/----------------------------------------------------| Primera Guitarra
E/--10------h8------h10---------|
3/-------------------------8-6-8---6-8-10---6/20------| B/--10------h8------h10---------|
4/-----------------5-7-5-7---------5-7-9----5/19------| G/--11------h9------h11---------|X2
5/-----------4-6-4-----------------6-8-10---6/20------| D/--12------h10-----h12---------|
6/---3-5-3-5------------------------------------------|
Segunda Guitarra (puede hacer)
Importante “apañar” las otras cuerdas:
RIFF 1 E/------------------------------|X
B/------------------------------|X
La Sol La G/--4h6------h4------h6---------|O
D/--5h7------h5------h7---------|O
Cuando llego el habano a la orilla del rio A/------------------------------|X
La Sol La E/------------------------------|X
Vio un pequeño cigarro muerto, abierto y tendido
RIFF 2 (mientras se canta la estrofa)
La Sol La
Estaba todo mojado sin señales de vida
La Sol La
El tabaco se desprendia quedaba desparramado
RIFF 2 (mientras se canta la estrofa)
La Sol La
Tristeza, llantos, lamentos reinaran desde hoy en babel
La Sol La
Se nos ha muerto Gabriel todo ha quedado en silencio

RIFF 3 (mientras se canta la estrofa)


Solamente un buen fuego puede dar muerte a un cigarro
Pero si muere mojado es igual
que si a un hombre lo mataran colgado....

(INTRO)X1 y luego otra mientras se canta:


Colgado...

127
Lucho Barrios
La Joya del Pacífico
Se recomienda tocar esta canción con los dedos (como se explica en el recuadro de al lado) y no con uñeta, ya
que le da mas fluidez la partes rápidas, al menos en guitarra acústica.

INTRO
|--t--|
e|-------------------------------------------7-10-9| |---t----| = trémolo (se toca la
B|-------0---1-1-1-5-3-[6-6-6]-5-3---------9-------| misma cuerda 3 veces con los dedos
G|---2-1---2-----------------------5-4---9---------| a, m, i [anular, medio e índice)
D|-2-----------------------------------------------| [6-6-6] = la nota en que se debe
A|-------------------------------------------------| hacer tremolo
E|-------------------------------------------------|
p. = dedo pulgar
|---t----| i. = dedo índice
e|-12-10-10-13-12-[15-15-15]-13-12----12---------12|
B|---------------------------------15---------14---| m. = dedo medio
G|-----------------------------------------14------|
a. = dedo anular
D|-------------------------------------------------|
A|-------------------------------------------------|
E|-------------------------------------------------|

m i p m i p m i p m i p m
e|-15-14-17-15----17-15----17-15----17-15----17--|
B|-------------17-------17-------17-------17-----|
G|-----------------------------------------------|
D|-----------------------------------------------|
A|-----------------------------------------------|
E|-----------------------------------------------|

m i m i i a m i
e|-15-17-15------10-12-13-15-13-12---17-16-15-14-|
B|----------18---12-13-15-17-15-13---------------|
G|-----------------------------------------------|
D|-----------------------------------------------|
A|-----------------------------------------------|
E|-----------------------------------------------|

a m i a m i a m i a m i m i a m
e|-13-12-11-10-9-8-13-12-10----------------------|
B|--------------------------13-12-10-------------|
G|-----------------------------------13-10-------|
D|-----------------------------------------14-12-|
A|-----------------------------------------------|
E|-----------------------------------------------|

i m i
e|---------------------12----17------------------|
B|------------10-13-10-10-13---------------------|
G|----------------9--------9-17------------------|
D|-10---------10----10---------------------------|
A|----14-12--------------------------------------|

128
E|-----------------------------------------------|
Am E Am
Eres un arcoiris de múltiples colores
F E (riff)
tú, Valparaíso, puerto principal
Dm
tus mujeres son blancas margaritas
E Am (riff)
todas ellas arrancadas de tu mar

Am E Am
Al mirarte de Playa Ancha lindo puerto
A7 Dm
allí se ven las naves al salir y al entrar
Am
el marino te canta esta canción
E Am (riff)
yo sin ti no vivo, puerto de mi amor

CORO
A E
Del cerro Los Placeres yo me pasé al Barón
A
me vine al Cordillera en busca de tu amor
A7 D
te fuiste al Cerro Alegre y yo siempre detrás
E A RIFF
porteña buenamoza no me hagas sufrir más
A E e|-----------12----17-|
La Plaza de la Victoria es un centro social B|--10-13-10-10-13----|
A G|------9--------9-17-|
oh, Avenida Pedro Montt, como tú no hay otra igual D|--10----10----------|
A7 D A|--------------------|
más yo quisiera cantarte con todito el corazón E|--------------------|
E A
Torpedera de mi ensueño, Valparaíso de mi amor

(INTRO)

Am E Am
En mis primeros años yo quise descubrir
G C
la historia de tus cerros jugando al volantín
Dm
como las mariposas que vuelan entre las rosas
E Am (riff)
yo recorrí tus cerros hasta el último confín
Am E Am
Yo me alejé de ti, puerto querido
G C
y al retornar de nuevo, te vuelvo a contemplar
Dm Am
la joya del Pacífico te llaman los marinos
E Am (riff)

129
y yo te llamo encanto como Viña del Mar

(CORO)
Terminar el último verso más lento y con énfasis
Maná
Cachito (unplugged)

INTRO:
Comienza con percusión de bongó y luego el bajo de esta forma:
e:---------------------------------
B:---------------------------------
G:----------------------------------
D:--2--3-2--------------------------
A:---------5--3--2--0--2-0--2-0-2---
E:----------------------------------

Ahora entra la guitarra:


INTRO: (C F G) X2

VERSOS
C F
Tan solo un adicto, un adicto de tu sol
C F
y es que con solo un cachito, un pedasito de tu luz
C Em
yo llegaria al cielo o me caeria al suelo
F G
por ti mi amor, oh no tan solo.

CORO:
C F
Un cachito de tu corazón
G C
ay ay ay, eoh
Em F G
un adicto de tu corazón

oh oh, eoh
C F
un cachito de tu corazón
G C
ay ay ay, eoh
Em F G
soy un adicto de tu corazón.

INTRO:(C F G)
Al final del INTRO el bajo hace:
e:----------------------------------
B:----------------------------------
G:----------------------------------
D:--2--3-2--------------------------
A:---------5--3--2--0--2-0--2-0-2---
E:----------------------------------

C F
Pedirle a mi cabeza, que deje de pensar en ti
C F
es casi como pecirle, a mi corazón

130
C Em
que deje de latir, mas bien olvida eso
F G
no, no repitas eso, te pido amor
CORO:
C F
Un cachito de tu corazón
G C
ay ay ay, eoh
Em F G
un adicto de tu corazón

oh oh, eoh
C F
un cachito de tu corazón
G C
ay ay ay, eoh
Em F G
soy un adicto de tu corazón.

SOLO:
e.--5-5-5-3-3-1-1-0-1-------3-----5------7~~---8--7--|
B.--6-6-6-5-5-3-3-1-3---3/5---5/6---6/8--------------|
G.---------------------------------------------------|
D.---------------------------------------------------|
A.---------------------------------------------------|
E.---------------------------------------------------|

e.--8-7-3-0---8-7-1---8-8-7-5-3-1-0--|
B.--8-8-5-1---8-8-3---8-8-8-8-5-3-1--|
G.-----------------------------------|
D.-----------------------------------|
A.-----------------------------------|
E.-----------------------------------|

Luego se rasguea estos acordes:


(C F G)

SOLO
e.--8-8-8-8-8--8-8-8-8--8-8-8-8-8-8--8-7-5-7--|X2
B.--8-8-8-8-8--8-8-8-8--8-8-8-8-8-8--8-8-8-8--|
G.--7-7-7-7-7--7-7-7-7--7-7-7-7-7-7-----------|
D.--------------------------------------------|
A.--------------------------------------------|
E.--------------------------------------------|

C F G
Pequeñita de mi corazon
C F G
Pequeñita de mi corazon
C F G
Pequeñita de mi corazon
C F G
Pequeñita de mi corazon

SOLO TROMPETA:
C F G X 4

FINAL
C-C*-C F G C-C*-C F G C

131
e|-|---------|---------0--|
B|-|---------|---------1--|
G|-|---------|---------0--|
D|-2-3-2-----|---------2--|
A|-------5-3-2-----2-5-3--|
E|-------------3-3--------|
Maná D# E#
Deja amarte corazon
Clavado en un Bar D# E# F#
Ven y sacame de este bar

INTRO CORO:
B
Oh yeah! Estoy clavado,
B E B E Gb D#m
e--7--7-7---7--7-7----9--9 Estoy herido,
B--7--7-7---7--7-7----9--9 G#m E
G--8--9-9---8--9-9---11-11 Estoy ahogado en un bar
D--9--9-9---9--9-9---11-11 B
A--9--7-7---9--7-7----9--9 Desesperado,
E--7--7-7---7--7-7 ---9--9 D#m
En el olvido amor,
B E B E Gb B E B G#m E
e--7--7-7---7--7-7----9--9----7--7--7 Estoy ahogado en un bar Hey!
B--7--7-7---7--7-7----9--9----7--7--7
G--8--9-9---8--9-9---11-11----8--9--8 INTRO
D--9--9-9---9--9-9---11-11----9--9--9 B E B E Gb
A--9--7-7---9--7-7----9--9----9--7--9 e--7--7-7---7--7-7----9--9
E--7--7-7---7--7-7----9--9----7--7--7 B--7--7-7---7--7-7----9--9
G--8--9-9---8--9-9---11-11
B F# D--9--9-9---9--9-9---11-11
Aqui me tiene bien clavado A--9--7-7---9--7-7----9--9
G#m E--7--7-7---7--7-7 ---9--9
Son tantas las penas en un bar
E B E B E Gb B E B
Brindando por tu amor e--7--7-7---7--7-7----9--9----7--7--7
B--7--7-7---7--7-7----9--9----7--7--7
RIFF A G--8--9-9---8--9-9---11-11----8--9--8
e:-------------------2-- D--9--9-9---9--9-9---11-11----9--9--9
B:---2-----4--4------2-- A--9--7-7---9--7-7----9--9----9--7--9
G:---2-----4--4--------- E--7--7-7---7--7-7----9--9----7--7--7
D:----------------------
A:---------------------- B F#
E:---------------------- Se que te gustan demasiados
G#m
B F#m Que te pretende cantidad
Aqui me tiene abandonado E
G#m Pero eso no es felicidad
Bebiendo tequila pa'olvidar B F#
E Y mi amor nunca se raja
Y sacudirme hacia el dolor G#m
Y mi amor nunca jamas te va a fallar
BRIDGE E
B F# G#m E D# E D#m Nunca jamas
e-2--2--4---0----6--7----6-----
B-4--2--4---0----6--7----7----- BRIDGE
G-4--3--4---1----8--9----8----- B F# G#m E D# E D#m
D-4--4--6---2----8--9----8----- e-2--2--4---0----6--7----6-----
A-2--4--6---2----6--7----6----- B-4--2--4---0----6--7----7-----
E-2--2--4---0----6--7----6----- G-4--3--4---1----8--9----8-----
D-4--4--6---2----8--9----8-----
B F# G#m A-2--4--6---2----6--7----6-----

132
Donde estas bendita? E-2--2--4---0----6--7----6-----
B E F#
Donde te has metido?
D# E#
Abre un poco el corazon
CORO: e-----4\7--8--6--4---------------------
B B--------------------------------------
Estoy clavado, G--------------------------------------
D#m D--------------------------------------
Estoy herido, A--------------------------------------
G#m E E--------------------------------------
Estoy ahogado en un bar
B B F#
Desesperado, Aqui me tienen embriagado
D#m G#m
En el olvido amor, Llorando de rabia en un bar
G#m E E
Estoy ahogado en un bar Hey! Brindando por su amor

CORO 2: RIFF A
B e:--------------------2------
Voy desesperado, B:---2-----4--4-------2------
D#m G:---2-----4--4--------------
Voy en el olvido, D:---------------------------
G#m E A:---------------------------
Estoy ahogado en un bar E:---------------------------

B F#
G#m E Aqui me tiene bien clavado
Dejate querer amor G#m
B Tomando tequila pa'olvidar todo
Quiero ser tu todo E
D#m No es justo amor
Y tu corazon
G#m E CORO 2:
Ven a rescatarme amor B
B Voy desesperado,
Yo quiero ser tu sol D#m
F#m Voy en el olvido,
Yo quiero ser tu mar Oooohhh! G#m E
Estoy ahogado en un bar

SOLO:
e------------------------------------- FINAL:
B---------13----15-16-------13--15-16- B E B E Gb
G---11\13----13--------11\13------13-- e--7--7-7---7--7-7----9--9---
D------------------------------------- B--7--7-7---7--7-7----9--9---
A------------------------------------- G--8--9-9---8--9-9---11-11---
E------------------------------------- D--9--9-9---9--9-9---11-11---
A--9--7-7---9--7-7----9--9---
E--7--7-7---7--7-7----9--9---
e--12-13---15----13/12/10-------------
B------------------------------------- B E B E Gb B B B
G--------------------------12h14p12-12 e--7--7-7---7--7-7---9--9---7---7-7--
D------------------------------------- B--7--7-7---7--7-7---9--9---7---7-7--
A------------------------------------- G--8--9-9---8--9-9--11-11---8---8-8--
E------------------------------------- D--9--9-9---9--9-9--11-11---9---9-9--
A--9--7-7---9--7-7---9--9---9---9-9--
E--7--7-7---7--7-7---9--9---7---7-7--
e--------------------------------------
B--------------------------------------

133
G--12h14p12---12-----12h14p12--12------
D--------------------------------------
A--------------------------------------
E--------------------------------------
Maná Am
No aprietes tanto
F

Como te Deseo C G
soy un lobo hambriento
Am F
G C D y el calor no se dispersa
Como yo te deseo, na nana nana na C G
G C D no se dispersa amor.
como yo te adoro, na nana nana na
G C D
Como yo te deseo, na nana nana na Am F
G C D Te abrazo fuerte
como yo te adoro, na nana nana na C G
no abras los ojos
Am
Am F C ahi entonces bailaras
Mariposas bailan en mi pecho F C
G Am F C G en mi pecho amor.
el calor no se dispersa amor G
Am F C te deseo mas!
oye nena te quiero besar
G Am F C G
de los pies a la cabeza amor Am F C G
Te deseo, aha aha uh ha
Am F C G
Am F yo te quiero, ohh yeah
No aprietes tanto Am F C G
C G Te deseo, aha aha uh ha
soy un lobo hambriento Am F C G
Am F C G yo te quiero.
y la luna suelta el llanto
Am F
en mis pupilas G C D
C G Como yo te deseo, na nana nana na
entras desnuda G C D
Am F C como yo te adoro, na nana nana na
siento que me ahogo en tu sudor

te deseo mas! Am F C G
Te deseo, aha aha uh ha
Am F C G
Am F C G yo te quiero, ohh yeah
Te deseo, aha aha uh ha Am F C G
Am F C G Te deseo, aha aha uh ha
yo te quiero, ohh yeah Am F C G
Am F C G yo te quiero.
Te deseo, aha aha uh ha
Am F C G G C D X3
yo te quiero.
G C D
uoh, uoh, oh, oh, ay, ay
Am F C G G C D
Un tambor sono muy africano uoh, uoh, oh, oh, ay, ay
Am F C G G C D
ese ponpin ponpin de tu corazon. uoh, uoh, oh, oh, ay, ay
Am F C G G C D

134
Un tambor sono muy mexicano uoh, uoh, oh, oh, ay, ay
Am F C G
ese ponpin ponpin de tu corazon. FADE OUT con:
G C D
Maná
En el muelle de San Blás

Em A D G
E|---------7-------|---------5-------|---------5-------|----------3---2--|
B|-----8-------8---|-----5-------5---|-----7-------7---|-----3----------3|
G|---9---9---9---9-|---6---6---6---5-|---7---7---7---7-|---4---4----4----|
D|-----------------|-----------------|-0---------------|-----------------|
A|-----------------|-0---------------|-----------------|-----------------|
E|-0---------------|-----------------|-----------------|-3---------------|

En el acorde G seria un G con cejilla y las ultimas 2 notas cambia al acorde D.


Y el arpegio en el coro va asi:

D9 A/C# D9/B
E|---------0-------|---------0-------|----------0------|
B|-----3-------3---|-----2--------2--|------3-------3--|
G|---2---2---2---2-|---2---2----2---2|----2---2---2---2|
D|-0---------------|-----------------|-----------------|
A|-----------------|-4---------------|--2--------------|
E|-----------------|-----------------|-----------------|

INTRO
Em A D G
Em A D G
Uh uh uh uh uh uh uh

Em A D G
Ella Despidio a su amor, el partio en un barco en el muelle de San Blas
Em A D G
El juro y que volveria y empapada en llanto ella juro que esperaria
Em A D G
Miles de lunas pasaron y siempre ella estaba en el muelle esperando
Em A D G
Muchas tardes se anidaron se anidaron en su pelo y en sus labios.

Em A D G
Uh uh uh uh uh uh uh (2 veces)

Em A D G
Llevaba el mismo vestido y por si el volviera no se fuera a equivocar
Em A D G
Los cangrejos le mordian sus ropajes, su tristeza y su ilusion
Em A D G
Y el tiempo se escurrio y sus ojos se le llenaron de amaneceres
Em A D G
Y del mar se enamoro y su cuerpo se enrraizo en el muelle.

CORO
D9 A/C# D9/B A/C#
Sola, sola, en el olvido. Sola, sola, con su espiritu

135
D9 A/C# G A D D
Sola, sola, con su amor el mar. Solaaa, en el muelle de San Blas.

Em A D G
Em A D G
Su cabello se blanqueo pero ningun barco a su amor le devolvia
Em A D G
y en el pueblo le decian, le decian la loca del muelle de San Blas
Em A D G
Y una tarde de abril la intentaron transladar al manicomio
Em A D G
Nadie la pudo arrancar y del mar nunca jamas la separaron.

(CORO)X1

NOTA: Este arpegio va despues del coro, necesitas oir el disco para que sepas donde entra y que ritmo lleva.

D
E|-------------3---------------3--------3---2---0-------3---2---0---
B|-----3---2-----------3---2----------3---3---3---3---3---3---3---3-
G|---2---2---2---2---2---2---2---2--2---------------2---------------
D|-0---------------0------------------------------------------------
A|------------------------------------------------------------------
E|------------------------------------------------------------------

Uooooooooh oooh oooh


-------------3---------------3--------3---2---0-------3---2---0---|
-----3---2-----------3---2----------3---3---3---3---3---3---3---3-|
---2---2---2---2---2---2---2---2--2---------------2---------------|
-0---------------0------------------------------------------------|
------------------------------------------------------------------|
------------------------------------------------------------------|

(CORO)X2

al final de este coro hay un espacio y luego tocas lo que sigue marcando los acordes de esta manera:

Am G D7
E|-5-5-x-5-x-5-x-x-|-3-3-x-3-x-3-x-x |-5-5-x-5-x-5-x-x-|
B|-5-5-x-5-x-5-x-x-|-3-3-x-3-x-3-x-x-|-7-7-x-7-x-7-x-x-|
G|-5-5-x-5-x-5-x-x-|-4-4-x-4-x-4-x-x-|-5-5-x-5-x-5-x-x-|
D|-7-7-x-7-x-7-x-x-|-5-5-x-5-x-5-x-x-|-7-7-x-7-x-7-x-x-|
A|-7-7-x-7-x-7-x-x-|-5-5-x-5-x-5-x-x-|-5-5-x-5-x-5-x-x-|
E|-5-5-x-5-x-5-x-x-|-3-3-x-3-x-3-x-x-|-5-7-x-7-x-7-x-x-|

Am Am G G Am Am G G
UOOOOH OH OH OH OH OH YEH EH EH EH

D7 D7 G G
Se quedo, se quedo, sola, sola.
D7 D7 G G
Se quedo, se quedo, con el sol y con el mar
D7 D7 G G
Se quedo ahi, se quedo hasta el fin. Se quedo ahi, se quedo,
D7 D7 G G
en el muelle de San Blas UOOOOH OH OH OH
D7 D7 G G
Sola, Sola se quedo.

NOTAS:

136
1- El D del coro es un golpe rasgueando las cuerdas
2- Son importante los acordes con bajos(A/C#). Suena posta
la canción si prueban
3- El G del coro es SIN CEJILLA
Maná
Rayando el Sol (unplugged)
El formato de siempre, una guitarra con el ritmo y otra con los arreglos. Los RIFFs a continuación se tocan
con una segunda guitarra cuando salga en la canción.
RIFF 1 RIFF 2 RIFF 3
e|--5-7-5-3-2-3--|--5-7-8-10-8--|-5-7-5-3-7-8-7-|--------------------|
B|--5-7-5-3-3-3--|--5-7-8-10-8--|-5-7-5-3-7-8-7-|--------------------|
G|---------------|--------------|---------------|--------------------|
D|---------------|--------------|---------------|--------------------|
A|---------------|--------------|---------------|--------------------|
E|---------------|--------------|---------------|--------------------|

INTRO
G - D - Em - C
G - Bm - C - D - Em

G C D C
Rayando el sol, rayando por ti
G C D C
esta pena me duele me quema sin tu amor (riff 1)
Bm C D
No me has llamado estoy desesperado (riff 2)
Bm C D
son muchas lunas las que te he llorado

CORO
G D Em C
Rayando el sol, desesperación
G Bm C D
es mas facil llegar al sol que a tu corazón
G D Em C
Me muero por ti, viviendo sin ti
G Bm C D Em
y no aguanto me duele tanto estar asi, rayando el sol

G C D C
A tu casa yo fui y no te encontre (riff 1)
G C D C
en el parque, en la plaza, en el cine yo te busque (riff 3)
Bm C D
Te tengo atrapada entre mi piel y mi alma (riff 2)
Bm C D
mas ya no puedo tanto y quiero estar junto a ti

CORO
G D Em C
Rayando el sol, desesperación
G Bm C D
es mas facil llegar al sol que a tu corazón

G
G
Me muero por ti,
D

Bm C
y no aguanto me duele tanto estar asi,
Em
viviendo sin ti
D
C

Em
rayando el sol
\Entrada a solo/
(C.......

137
SOLO
(C) (D) (Bm) (C) (D)....
E|-------------10h12-12--10h12-12-10--------12-10----------------10-12-14-10-12--12-12-12-14-15-14---|
B|----10-12-13------------------------10-10--------10-10-10------------------------------------------|
G|--12------------------------------------------------------12-11------------------------------------|
D|---------------------------------------------------------------------------------------------------|
A|---------------------------------------------------------------------------------------------------|
E|---------------------------------------------------------------------------------------------------|

E|-12h14-11----------------------------|
B|---------12--------------------------|
G|-----------11-9-8--------------------|
D|-------------------7-5-4-5-4---------|
A|-----------------------------7-5/7~~-|
E|-------------------------------------|

Interludio de Armónica: (como la INTRO)


G - D - Em - C - D

CORO
G D Em C
Rayando el sol, desesperación
G Bm C D
es mas facil llegar al sol que a tu corazón
G D Em C
Me muero por ti, viviendo sin ti
G Bm C D Em
y no aguanto me duele tanto estar asi,
G Bm C D
Rayando el sol, (rayando...rayando)
G Bm
Rayando el sol, (rayando...rayando)
C D G(inmediatamente con esta nota entra el SOLO en la 2ª Guitarra)
ay ay ay ay ay ay! Rayando el soool...

SOLO FINAL
La primera guitarra acompaña con los acordes del coro.

e|------------------------------7---5---3-3-3-3-3~--3-5-7-7---|
B|---------5----------------------3---3-----------------------|
G|-----4-5---5-7-7-7-7~~~-5-7-5-------------------------------|
D|-5-7--------------------------------------------------------|
A|------------------------------------------------------------|
E|------------------------------------------------------------|

E|-7-7-7-7-7-8--7-7-5--5-5-7-5-5-3--3-3-3-2----8-8-7-5-3~-----|
B|-8-8-8-8-8-10-8-8-7--7-7-8-7-7-5--5-5-5-3-------------------|
G|------------------------------------------------------------|
D|------------------------------------------------------------|
A|------------------------------------------------------------|
E|------------------------------------------------------------|

138
Maná
Te Lloré un Río
INTRO
1.-----4-----7------4------------4-----7-7---4-----|
2.---5---5------5-----5--------5---5-------------7-|
3.-4-------4------4----------4-------4-----4-------|
4.-------------------------------------------------|
5.-------------------------------------------------|
6.-------------------------------------------------|
1.-----4-----7------4------------4-----7-7---4-----|
2.---5---5------5-----5--------5---5------------7--|
3.-4-------4------4----------4-------4-----4-------|
4.-------------------------------------------------|
5.-------------------------------------------------|
6.-------------------------------------------------|
1.-----4-----7------4----------4-----4-7-4---------|
2.---5---5------5-----5------5---5---5-9-5---5-7-5-|
3.-4-------4------4--------4-------4-------4---6-4-|
4.-------------------------------------------------|
5.-------------------------------------------------|
6.-------------------------------------------------|

E B
Yo aqui llorandote un rio 1.------------------------------------|
C#m 2.--------------------------12--10--9-|
mandandome al olvido 3.----------------8--9--11------------|
B 4.---------9--11----------------------|
que cosa mas injusta amor 5.-11--12-----------------------------|
E B 6.------------------------------------|
Fuiste matando mis pasiones
1.-2-2-2------------| E B
2.-------4-4-4--2-2-| Ya no me busques ya es muy tarde
C#m C#m
tachando mis canciones ya tengo otro amor
A B
me tenias pisoteado una chula sirena que nada en mi piel
B E B
estaba desahuciado Yo te perdono no hay rencores
C#m B 1.-2-2-2------------|
No es justo, no bebe Oh oh e oh 2.-------4-4-4--2-2-|
1.-7-7-7-------------------| C#m
2.--------9-9-9-7-7-7------| solo los dolores
3.---------------------9-6-| A
Mi alma esta arañada
B A# A B B
Pero este mundo ya giro llore en suelo mojado
C#m B C#m B
y ahora te toco perder Oh oh e oh No es justo no bebe,oh oh e oh.
1.-7-7-7-------------------|
CORO 2.--------9-9-9-7-7-7------|
E C#m A B 3.---------------------9-6-|
Bebe te llore todo un rio (bebe bebe)
E C#m A B B A# A B
Bebe te llore a reventar (bebe bebe) Pero este mundo ya giro
E C#m A B C#m B
Oh no no nooo, no tienes corazon (noo) y ahora te toco perder Oh oh e oh

139
No te vuelvo a amar
C#m A
Te llore todo un rio
B E
ahora llorame un mar.
CORO
E C#m A B
Bebe te llore todo un rio (bebe bebe)
E C#m A B
Bebe te llore a reventar (bebe bebe)
E C#m A B
Oh no no nooo, no tienes corazon (noo)
No te vuelvo a amar
C#m A
Te llore todo un rio
B E
ahora llorame un mar.

SOLO
1.---------------------|
2.---------------------|
3.----------------8--9-|
4.---------9--11-------|
5.-11--12--------------|
6.---------------------|
1.--12--12--12--11--11--11-----9--9--9--7--7--7--7-12--11-|
2.--14--14--14--12--12--12----10-10-10--9--9--9--9-14--12-|
3.--------------------------------------------------------|
4.--------------------------------------------------------|
5.--------------------------------------------------------|
6.--------------------------------------------------------|
1.--------------------------------------------------------|
2.----------------------12--10--9-------------------------|
3.----------------8--9-------------9--11------------------|
4.---------9--11------------------------------------------|
5.-11--12-------------------------------------------------|
6.--------------------------------------------------------|
1.------------------------------9--12--11-----------------|
2.-9-9-9-9-9--10-10-10--10--12----------------------------|
3.--------------------------------------------------------|
4.--------------------------------------------------------|
5.--------------------------------------------------------|
6.--------------------------------------------------------|

E C#m A B
Verdad que un rio te llore, verdad que no te vuelvo a amar
E C#m A B
oh no no no, no te vuelvo a amar

E C#m A B
Verdad que un rio te llore, verdad que no te vuelvo a amar
E C#m A B
oh no no noo no, pierdete en tu mar

E C#m A B
Verdad que un rio te llore, verdad que no te vuelvo a amar
E C#m A B
llorame, llorame, llorame

(SE REPITE HASTA EL FINAL)

140
Maná
Vivir Sin Aire (Unplugged)

INTRO
G Bm C D Final
e----3------5---2---5p2--0----3---2-----3---|--3-2-2-0-0---------|
B----3-3----3---3--3-----1---1----3-3p5--5--|--3-3-3-1-1--3-3\1~-|
G----0--0-0-----2-2------0--0-----2---------|-------------4-4\2~-|
D---------------------------------0---------|--------------------|
A---------------2--------3------------------|--------------------|
E----3---3----------------------------------|--------------------|

Harmonica (va antes que termine la INTRO):


e-----12~~~-10-12-10-12-10-10-7~--7-8-7-8-7-7-3~-3p5~-
B---8~------------------------------------------------
G-----------------------------------------------------
D-----------------------------------------------------
A-----------------------------------------------------
E-----------------------------------------------------

1.
G Bm C D G Bm C D
Como quisiera poder vivir sin aire
RIFF 2
e--3/5--5-5--3-2--2-3-2-0-------2---3--2-2-3--------
B--3/5--5-5--3-3--3-3-3-1--1/3--3---3--3-3-3--------
G--------------------------2/4----------------------
D---------------------------------------------------
A---------------------------------------------------
E---------------------------------------------------

G Bm C D G Bm C D
Como quisiera poder vivir sin agua
RIFF 2
e-----3------3-5-3-----------------------
B-3/5----3-5-3-5-3--3-3/5--5-5-5-3-3-3-1-
G--------4-5--------4-4/5--5-5-5-3-4-4-2-
D----------------------------------------
A----------------------------------------
E----------------------------------------

G Bm C D G Bm C D
Me encantaria quererte un poco menos (RIFF 2)

G Bm C D G Bm C D
Como quisiera poder vivir sin ti (RIFF 2)

2.
C D Em C
Pero no puedo, siento que muero

G D
Me estoy ahogando sin tu amor
RIFF 4
e--2-3-5-3-2---3-2--------------
B------------5-----5-3----------
G----------------------5-4------
D--------------------------5h0--
A-------------------------------

141
E-------------------------------
3. 3.
Em C G D Em C G D
Como quisiera poder vivir sin aire Como quisiera poder vivir sin aire
Em C D Em C D
Como quisiera calmar mi aflicción Como quisiera calmar mi aflicción
Em C G D Em C G D
Como quisiera poder vivir sin agua Como quisiera poder vivir sin agua
Em C D Em C D
Me encantaria robar tu corazón Me encantaria robar tu corazón

(INTRO) 4.
Em C G D
G Bm C D G Bm C D Como quisera lanzarte al olvido
Como pudiera un pez nadar sin agua Em C D
RIFF 4 Como quiera guardarte en un cajon
e-----------2-3-0---------------- Em C G D
B------3-5--3-3-1--5-5-5-3-3-----
G--4-5-4-5---------5-5-5-4-4--4-5 Como quisiera borrarte de un soplido
D--5-5------------------------5-5 Em C D
A-------------------------------- Me encantaria matar esta cancion
E--------------------------------
FINAL
G Bm C D G Bm C D
e----3-2-0-----2-3-0--0---------
Como pudiera un ave volar sin alas
B----3-3-1-3-3-3-3-1--1-3-1-4---
RIFF 5
e--------7---5---3--2-3-0-----2-3-2-2-3 G----------4-4----------4-2-5---
B----5p7---5---3----3-3-1-1p3-3-3-3-3-3 D-------------------------------
G-------------------------2p4---------- A-------------------------------
D--------------------------------------
A-------------------------------------- E-------------------------------.....
E--------------------------------------

G Bm C D G Bm C D
Como pudiera la flor crecer sin tierra
RIFF 6
e-----------2-3-0-------------2-3
B------3-5--3-3-1--5-5-5-3-3--3-3
G--4-5-4-5---------5-5-5-4-4-----
D--5-5---------------------------
A--------------------------------
E--------------------------------

G Bm C D G Bm C D
Como quisera poder vivir sin ti (riff 5)
RIFF 5
e--------7---5---3--2-3-2-0-0--------------
B----5p7---5---3----3-3-3-1-1-3-3-0-0-1\3--
G-----------------------------4-4-0-0-2\4--
D------------------------------------------
A------------------------------------------
E------------------------------------------

2.
C D Em C
Pero no puedo, siento que muero

G D
Me estoy ahogando sin tu amor
RIFF 4
e--2-3-5-3-2---3-2--------------
B------------5-----5-3----------

142
G----------------------5-4------
D--------------------------5h0--
A-------------------------------
E-------------------------------
Marc Anthony
Escapémonos

Intro: Am Am/G Dm G G7 C E

Am Am/G Dm
Escapémonos tan lejos de aquí distantes de todo
G G7 C E
en la oscuridad donde no haya más que ver en tus ojos
Am Am/G Dm
escondámonos de la multitud, del absurdo día a día
E Am Dm G
donde todas esas cosas que perturben no esten mas en nuestras, vidas en nuestras vidas

CORO
C G Am
Para que estemos solos amor y el universo se nos quede en un abrazo
Dm F G
donde se esfumen esas dudas y esos miedos que nos quedan del pasado
C G Am Dm
para que estemos solos amor en un día sin fin sin preocuparnos más del que podran decir
E Am
donde durmamos abrazados y si entonces nos sorprende el amanecer
Dm F G (Intro)
saber que estas ahí, que estamos solos... escapémonos

Am Am/G Dm
Escapémonos, por necesidad, nos debemos tanto
G G7 C E
si el amor esta no hay por qué esperar el dónde o el cuándo
Am Am/G Dm
escondámonos de la multitud, del absurdo dia a dia
E Am Dm E
donde todas esas cosas que perturben no esten más en nuestras vidas, en nuestras vidas

CORO
C G Am
Para que estemos solos amor y el universo se nos quede en un abrazo
Dm F G
donde se esfumen esas dudas y esos miedos que nos quedan del pasado
C G Am Dm
para que estemos solos amor en un día sin fin sin preocuparnos más del que podran decir
E Am
donde durmamos abrazados y si entonces nos sorprende el amanecer
Dm F G (Intro)
saber que estás ahí, que estamos solos... escapémonos

Dm F G (Intro)
...saber que estás ahí, que estamos solos... escapémonos

143
Marc Anthony Mi
fue enredándome es sus besos
Hasta Ayer Do
hasta que me volvió preso
(Dos rasgueos y luego apagar el sonido con la palma de Sol Fa Mi
la mano)
y en su juego despiadado
Lam Mi
{Cejillo en 3º traste}
Lam
me entrego con su pasión luego vino la
Lam
traición
Comprenda que no pretendo ofenderla
Rem
Mi
tampoco le estoy haciendo un reproche
y cual si yo fuera un niño
Fa
Do
Usted es dueña de su vida
me dijo que su cariño
Mi
Sol Fa Mi
De su cuerpo y de sus noches
lo brindaba a quien quisiera
Lam Mi
Lam
Lam
eres otra bandolera que jugo con mi
Confieso me enamore como un niño
querer
Rem
y siento que no estoy arrepentido
Mi
Fa
ya no creo mas mentiras
disfrute de tu experiencia
Lam Mi Lam
Mi
ni en llanto de mujer ohh ohh
Hasta calmar mi ansiedad
Mi Lam
yo te quería tanto mujer ohh
Mi Lam
Rem Mi
yo te adoraba mujer ohh
Fui dueño de su alcoba y de su almohada
Mi Lam
Rem Mi
ohh ohh
La tuve beso a beso piel con piel
Rem Fa
Y el sol me sorprendió por su ventana
Mi
cansado de delirio y de placer

Rem LAm
Hasta ayer, hasta ayer
Mi
y perdone usted señora
Do
pero cuando el alma llora
BIS
Sol Fa Mi
el silencio no es remedio
LAm Mi
para calmar el sufrir

Rem Lam
Hasta ayer, hasta ayer
Mi
mi dulce dama elegante
Do
supe que tiene otro amante

144
Sol Fa Mi
al que quizás con el tiempo
Lam Mi Lam
le hará lo mismo que a mi ohhh ohhh
Marc Anthony
Que Precio tiene el Cielo

RE
e:-2-------2---2-------2-—-2-2-0-3-2---5-3-2-0-3-2---5-3-I
B:—-3-----3-3-3-3-----3-3-3-----------5-3-----------5-3--I
G:---2-0-2---2---2-0—2---2----------3-------------3------I
D:------4-----------4------------------------------------I
A:-------------------------------------------------------I
E:-------------------------------------------------------I

En esta parte pueden obviar la 2/1 y solo tocar la nota RE y comenzar de la 3/2 suena igual.

VERSO 1
RE LA
Como es que te amo así con todo el pensamiento
SIm SOL LA
Como lograste entrar así sin preguntar robándote el momento
RE
Como es que te amo así
LA
Sin tanto sufrimiento
SIm SOL LA
Como es que es natural que cada amanecer quiero parar el tiempo
RE LA
Y es que te he dado todo y nada es suficiente
SIm SOL LA
No porque me lo pidas sino porque faltan frenos al quererte hoo

CORO
RE SOL
Que precio tiene el cielo, que alguien me lo diga
SIm SOL RE LA
Que más que darte amor yo quiero regalarte el azul de los días
RE SOL
Que precio tiene el cielo, que alguien me lo diga
SIm SOL RE LA
Si yo con esta historia siento que la gloria ah llegado a mi vida
RE FA#m
Que precio tiene el cielo, que alguien me lo diga
mim SOL LA
Yo pago con mi alma sin temor a nada
RE
Yo te doy mi vida.

VERSO 2
RE – LA – SIm – SOL

Esta noche te doy de todo cuanto tengo


y no me doy a basto como imaginar
que mundo yo te invento
Y desde aqui se ven las nubes y los vientos

145
por eso aqui te traje porque por lo pronto es todo lo que tengo
Y es que te he dado todo y nada es suficiente
no por que me lo pides sino porque faltan frenos al quererte.
CORO
RE – LA – sim – SOL – MIm – FA#m

Que precio tiene el cielo que alguien me lo diga


Que mas que darte amor yo quiero regalarte el azul de los dias
Que precio tiene el cielo que alguien me lo diga
Si yo con esta historia siento que la gloria a llegado a mi vida
Que precio tiene el cielo que alguien me lo diga

MIm LA
Yo pago con mi alma sin temor a nada
Fa#m
Yo te doy mi vida
MIm LA FA#m MIm SOL LA
Eternamente yo te inventaría como esta tantas otras melodías
SIm SOL LA
Para no faltarte si te falto un día.

Trompetas y Trombones:

I-7-7-7-7-8-5-7-7---7-7-7-7-10-7-8-8---8-8-8-8-7-8---8-8-8-8-7-8
I---------------------------------------------------------------
I---------------------------------------------------------------
I---------------------------------------------------------------
I---------------------------------------------------------------
I---------------------------------------------------------------

-8-8-8-10-8-8-7-5-5---7-5-3-5--------------11-9-14------------I
-----------------7-----------4-3---11-12-14-------------------I
--------------------------------------------------------------I
--------------------------------------------------------------I
--------------------------------------------------------------I
--------------------------------------------------------------I

CORO 2
FA# - SIm

Que precio tiene, dime que precio tiene, tiene....


Quiero regalarte el azul de los días la luna los mares mi vida
Que precio tiene, dime que precio tiene, tiene
Y es que te he dado de todo y nada es suficiente
Que precio tiene, dime que precio tiene, tiene
Oye mama te lo voy a dar con mi alma lo voy a pagar

Que me lo diga, que me lo diga, alguien que me lo diga, que me lo diga


Que me lo diga, que me lo diga, alguien que me lo diga, que me lo diga
que me lo diga, que me lo diga, alguien que me lo diga, que me lo diga

146
Metallica
Nothing Else Matters

VERSE 1
Em D C
So close no matter how far
Em D C
Couldn't be much more from the heart
Em D C
Forever trusting who we are
G B Em
And nothing else matters

VERSE 2
Em D C
Never opened myself this way
Em D C
Life is ours, we live it our way
Em D C
All these words I don't just say
G B Em
And nothing else matters

VERSE 3
Em D C
Trust I seek and find in you
Em D C
Every day for us something new
Em D C
Open mind for a different view
G B Em
And nothing else matters

CHORUS
C A D C
Never cared for what they do
A D C
Never cared for what they know
A D Em
But I know

{REPEAT VERSE 1}
{CHORUS}
{REPEAT VERSE 2 & VERSE 3}

C A D C
Never cared for what they say
A D C
Never cared for what they play
A D C
Never cared for what they do
A D C
Never cared for what they know
A D Em

147
But I know

{REPEAT VERSE 1}
Natalino CORO
Do Sol
Ángel del Pasado Yo te amo desde siempre
Do Sol
con tu encanto con tu edad
INTRO Do Lam Sim Mim
Do - Sol - Mim - Lam - Re - Sol Eres angel del pasaaaado
Lam Re Sol - Sol7
eres luz eres mi paz.
Sol Sim
como yo siento estar contigo
Rem Sol Do Do Sol
como yo vuelo al pasar Yo te amo desde siempre
Dom Sol Mim Do Sol
como yo quiero ser tu amigo con tu encanto con tu edad
Lam C/G Re Do Lam Sim Mim
como yo quiero ser tu mar. eres angel del pasaaaado
Lam Re Sol Mim
eres luz eres mi paz..
Sol Sim Lam Re Sol Mim
Cuando llegaste a mi vida mi prision mi libertad,
Rem Sol Do Lam Re Do
y me entregaste tu mirar. tu eres mi felicidad.
Dom Sol Mim
yo siento tantas ,tantas cosas
Lam C/G Re Sol - Mim - Lam - Re - Sol.
que no se pueden explicar.

CORO
Do Sol
Yo te amo desde siempre
Do Sol
con tu encanto con tu edad
Do Lam Sim Mim
Eres angel del pasaaaado
Lam Re Do
eres luz eres mi paz.

Sol - Mim - Lam - Re

Sol Sim
Yo te siento en todas partes
Rem Sol Do
yo te encuentro al despertar
Dom Sol Mim
y puedo mover al mundo entero,
Lam C/G Re
para verte en libertad. C/G:
e-0-
B-1-
Sol Sim G-0-
D-2-
Yo quiero ver abrir tus alas A-3-
Rem Sol Do E-3-

148
yo quiero verte caminar,
Dom Sol Mim
y asi cruzar este sendero
Lam C/G RE
para que aprendas a volar.
Natalino
Desde Que Te Vi

E G#m F#m
E|--0----0-2-0-2-2/4--0--0h2------4---4---4---4---4---4--|
B|--0----0-2-0-2-2/4--0--0h2-------5---5---5---5---5---5-|
G|--1-----------------------2-------6---6---6---6---6----|X2
D|--------------------------2----------------------------|
A|-------------------------------------------------------|
E|-0-----------------------------------------------------|

E G#m A
Hoy hermosa de mis sueños, llegas a llenar mi vida
E G#m A
Nunca todo es tan perfecto, pero casi es lo que siento

A B G#m C#m
El amor es mucha piel, ya lo sabes desde ayer
A B
El amor es mucha piel...

E G#m A
El amor es tan distinto, ahora que te conoci
E G#m A
Esas marcas de la edad que se pueden ya borrar

A B G#m C#m
Desde que te conoci, desde el dia en que te vi
A B
El amor es para ti...

CORO
G#m C#m A B
Desde que te vi, una flecha me clavaste por amor
G#m C#m D#dism(o F#m) G#m C#m
Uuuun embrujo fue, y cayendo entre tus redes desperte
A B
ahora tu eres mi vida...

E G#m A
X3 y en el 4to desvanecer
En las vueltas de la vida, y la vuelta de la esquina terminando en “...redes desperté”
E G#m A
Junto a las cosas bonitas, hay otras cosas distintas

A B G#m C#m
Desde que te conoci, desde el dia en que te vi
A B - B7
El amor es para ti...

149
Natalino ACORDE DE D+C

Si Hablo de Tí Hablo de Mí e--2-------


B--3-------
G--2-------
D----------
A--3-------
INTRO
e----7-7-7-5-5-3-3---8-8-8-8-7-7-5-5---7-7-7-5-5-3-3-5-3--
B---------------------------------------------------------
G---------------------------------------------------------
D---------------------------------------------------------
A---------------------------------------------------------
E---------------------------------------------------------

G
tan solo dame un minuto mas,
Am
solo un segundo ya dime que si.
G
es nuestra historia de amor.
Am
te ruego atiendeme.

G
si te pidiera partir de aqui
Am
un gesto tuyo podria bastar
G
la sientes nuestra cancion
Am
te pido aceptame

D Em
es como un fuego en mi corazon
C Bm
esta locura que siento por ti
C Bm
que bella que estás
Am D
que ganas me dan decirte que quiero decirte

CORO
G Bm
abrazame, tocame, besame, aprietame
C D D+C Bm
quemame,amame, todo es mas bello por ti
Em Am D
si hablo de ti hablo de mi.

y ahora tú

G Bm
abrazame, tocame, besame, aprietame
C D D+C Bm
quemame,amame, todo es mas bello por ti
Em Am D
si hablo de ti hablo de mi.

150
aguarda un poco y no digas mas
Bm
es esta copa la que habla por ti
A
es el latido en mi pecho
Bm
tan solo sienteme.
A
hay en tu boca inspiracion
Bm
será el secreto que guardan tus labios,
A Bm
pero me pierdo en tu beso, te ruego acercate

E F#m
eres el aire de mi pasion,
D C#m
si comprendieras que siento por ti
D C#m Bm E
que bella que estás, que ganas me dan decirte que quiero decirte.

CORO
A C#m
abrazame, tocame, besame, aprietame
D E E+D C#m
quemame,amame, todo es mas claro por ti
F#m E
si hablo de ti hablo de mi.

y ahora tú
A C#m
abrazame, tocame, besame, aprietame
D E E+D C#m
quemame,amame, todo es mas bello por ti
F#m E
si hablo de ti hablo de mi.

C - Em - Dm - 5ta cuerda 0-2 X2

F C Dm Em C Am
esto es así, y es algo que no pude no, evitarlo
F C
se que quieres venir, y que vivo por ti
Dm G
ven conmigo para atravesar este mundo que vive en amor.

A - C#m - D - E

A C#m
y ahora tú abrazame, tocame, besame, aprietame
D E E+D C#m
quemame,amame, todo es mas claro por ti
F#m E
si hablo de ti hablo de mi.

A C#m
y ahora tú abrazame, tocame, besame, aprietame
D E E+D C#m
quemame,amame, todo es mas bello por ti
F#m E
si hablo de ti hablo de mi.

A - C#m - D - E

151
si hablo de ti hablo de mi.
A - C#m - D - E
si hablo de ti hablo de mi.

Termina con: A
Nino Bravo Do#m
E....e
:x46654
Un Beso y Una Flor Re :xx0232
Mi :022100
Miadd9 :023100
Intro: (La | Mi-Fa#m | Mi-La) X2 Misus4 :022200
Fa#m :244222
A) Sol#m :466444
La La :x02220
Dejaré mi tierra por ti La* :577655
Mi-Fa#m Si#m :x24432
dejaré mis campos y me iré
Mi-La
lejos de aquí.

La
Cruzaré llorando el jardin
Mi-Fa#m
y con tus recuerdos partiré lejos de aquí.

B)
Re Do#m Fa#m
De día viviré pensando en tus sonrisas
Re Do#m-Fa#m
de noche las estrellas me acompañaran
Re Do#m Fa#m
serás como una luz que alumbre mi camino
Re Do#m Sim La Mi Misus4 Mi
me voy pero te juro que mañana volveré

CORO
La Mi Miadd9 Fa#m
Al partir un beso y una flor
La Re La*-Sol#m-Fa#m-Mi
un te quiero, una caricia y un adios;
Re Do#m Re Mi
es ligero equipaje para tan largo viaje
La Re Misus4 Mi
las penas pesan en el corazón

La Mi Miadd9 Fa#m
Mas alla del mar habrá un lugar
La Re La*-Sol#m-Fa#m-Mi
donde el sol cada mañana brille más.
Re Do#m Re Mi
Forjaran mi destino las piedras del camino
La Re Mi La
Lo que nos es querido siempre queda atras.

A)
La
Buscaré un hogar para ti
Mi-Fa#m Mi-La
donde el cielo se une con el mar, lejos de aquí.
La

152
Con mis manos y con tu amor
Mi-Fa#m
lograr, encontrar otra ilusion, lejos de aquí.
B)
Re Do#m Fa#m
De día viviré pensando en tus sonrisas
Re Do#m-Fa#m
de noche las estrellas me acompañaran
Re Do#m Fa#m
serás como una luz que alumbre mi camino
Re Do#m Sim La Mi Misus4 - Mi
me voy pero te juro que mañana volveré

CORO
La Mi Miadd9 Fa#m
Al partir un beso y una flor
La Re La*-Sol#m-Fa#m-Mi
un te quiero, una caricia y un adios;
Re Do#m Re Mi
es ligero equipaje para tan largo viaje
La Re Misus4 Mi
las penas pesan en el corazón

La Mi Miadd9 Fa#m
Mas alla del mar habrá un lugar
La Re La*-Sol#m-Fa#m-Mi
donde el sol cada mañana brille más.
Re Do#m Re Mi
Forjaran mi destino las piedras del camino
La Re Mi La
Lo que nos es querido siempre queda atras.

153
No Doubt Cm
Our memories
Don’t Speak Gm Fm
They can be inviting
Bb Gm
INTRO But some are all together mighty
Cm Fm Bb
frightening
Cm Gm Fm Bb
Cm As we die, both you and I
You and me Eb Bb C
Gm Fm With my head in my hands I sit and cry
We used to be together
Bb Gm CORO
Everyday together
Fm Bb Fm
Always Don`t Speak
C# Eb
I know just what you`re saying
Cm Gm C Bbm
I really feeld So please stop explaining
Fm Bb C Fm C# C
I`m losing my best friend Don`t tell me cause it hurts
Gm Cm Fm
I can`t believe This could be Don`t Speak
Fm Bb Bbm D#
the end I know what you`re thinking
C Bbm
I don`t need your reasons
Cm Gm C Fm C# C
It looks as though Don`t tell me cause it hurts
Fm Bb
You`re letting go
Eb C# G#
And if it`s real It`s all ending
Bb C B F# A (A5 C#5,
Well I don`t wan`t to know Eb5) (C#5 C#5 , G#5) G#
I gotta stop pretending who we are...

CORO Solo: Cm Gm Fm A# 3X Gm Cm Fm
Fm
Don`t Speak
Bbm Eb Cm A#
I know just what you`re saying You and me
C Bbm Fm A# Fm A#
So please stop explaining I can see us dying... are we?
C Fm C# C
Don`t tell me cause it hurts (CORO)
Fm
Don`t Speak
Bbm Eb
I know what you`re thinking
C Bbm
I don`t need your reasons
C Fm C# C
Don`t tell me cause it hurts

154
Oasis Em
EADGBe
:022000
Wonderwall G :320033
Dsus4 :000233
Asus4/7:002030
Em G D :000232
Today is gonna be the day C :032010
Dsus4 Asus4/7
that they gonna throw it back to you,
Em G
by now you should have somehow
Dsus4 Asus4/7
realized what you gotta do.
Em G Dsus4 Asus4/7
I don't belive that anybody feels the way I do
C Dsus4 Asus4/7
about you now.

Em G
Backbeat, the word is on the street
Dsus4 Asus4/7
that the fire in your heart is out,
Em G
I'm sure you've heard it all before,
Dsus4 Asus4/7
but you never really had a doubt.
Em G Dsus4 Asus4/7
I don't belive that anybody feels the way I do
Em G Dsus4 Asus4/7
about you now

C D Em
And all the roads we have to walk along are winding
C D Em
And all the lights that lead us there are blinding
C D
There are many things that I
G D Em Asus4/7
would like to say to you but I don't know how
hold then silence)

Chorus
C Em Dsus
Because maybe.....You're gonna be the one that saves me
Asus4/7
And after all.......You're my wonderwall

Em G
Today was gonna be the day
Dsus4 Asus4/7
but they'll never throw it back to you,
Em G
by now you should have somehow
Dsus4 Asus4/7

155
realized what you're not to do.
Em G Dsus4 Asus4/7
I don't belive that anybody feels the way I do
C Dsus4 Asus4/7
about you now.
Pre-chorus
C D Em
And all the roads that lead to you were winding

C D Em
And all the lights that light the way are blinding
C D
There are many things that I
G D Em Asus4/7
would like to say to you but I don't know how

Chorus
------
C Em Dsus
I said maybe
You're gonna be the one who saves me? (2x)
And after all
You're my wonderwall

Asus4/7

Said maybe
You're gonna be the one that saves me
You're gonna be the one that saves me
You're gonna be the one that saves me

156
Pearl Jam
Black
E A Asus4 A
Sheets of empty canvas
E A Asus4 A
untouched sheets of clay
E A
They spread out before me
E
as her body once did

E A Asus4 A
All five horizons,
E A Asus4 A
revolved around her soul (as the earth to the sun)
E A
Now the air I tasted and breathed,
E
has taken a turn (Not sure about this line)
C Em
Oooh all I know I taught her was... everything
C Em
Oooh all I know she gave all... that she wore
D
And my bitter hands
C
Shake beneath the clouds
Em
Of what was everything
D C
All the pictures have all been washed in black
Em
Tatooed everything.
E A Asus4 A
I take a walk outside
E A Asus4 A
I'm surrounded by some kids at play
E A
I can feel their laughter
E
So what can I say
C Em
Ooh all my twisted thoughts they spin round my head (I'm spinnin')
C Em
Oooh I'm spinning how quick the sun can drop awayayayayay
D
And my bitter hands
C
???? on broken glass (can't get this word)
Em
of what was everything
D C
All my pictures have all been washed in black
Em
Tatooed everything
D
All my love gone bad
C
turned my world to black
D
tatooed all I see
C
All that I am
Em
All that I'll beeeeee yeaahheah
D

157
I know some day you'll have a beautiful life
C
I know you'll be a sun,
Em D C
In somebody elses sky, whyhy, whyhy whyhy
Em
can't it be, can't it be in mine.
Piero
Mi Viejo

INTRO
e|----------|-----------|------------|-------------|
B|-1--1-0-0-|-----------|----0-0-0-1-|----0-0-0-1--|
G|--2----2--|-2-0-2-0-0-|-1-2---2---2|-1-2-----2-2-|
D|---2-----3|----3---3-2|------------|-------------|
A|----------|-----------|------------|-------------|
E|----------|-----------|------------|-------------|
e|----------|-----------|---------|----0--|--0-1-1-|-0--3-0-|
B|-1--1-0-0-|-----------|-0-1-3-3-|-1-0-1-|-3------|--3-----|
G|--2----2--|-2-0-2-0-0-|---------|-------|--------|--------|
D|---2-----3|----3---3-2|---------|-------|--------|--------|
A|----------|-----------|---------|-------|--------|--------|
E|----------|-----------|---------|-------|--------|--------|

Am E7
Es un buen tipo mi viejo
F G C
que anda solo y esperando
E7 Am
tiene la tristeza larga
E7 Am
de tanto venr andando
G-Am E7
yo lo miro desde lejos
F G C
pero somos tan distintos
E7 Am
es que crecio con el siglo
G C E7
con tranvia y vino tinto.
Am
Viejo mi querido viejo
G C
ahora ya caminas lento
E7 Am
como perdonando el viento
E7 Am
yo soy to sangre mi viejo
E7 Am
soy tu silencio y tu tiempo.
G-Am E7
El tiene los ojos buenos
F G C
y una figura pesada
E7 Am
la edad se le vino encima
E7 Am
sin carnaval ni comparsa.
G-Am E7
Yo tengo los anos nuevos
F G C
el hombre los anos viejos
E7 Am
el dolor lo lleva dentro
G C E7
y tiene historias sin tiempo
Am
Viejo mi querido viejo
G C
ahora ya caminas lento

158
E7 Am
como perdonando el viento
E7 Am
yo soy to sangre mi viejo
E7 Am
soy tu silencio y tu tiempo.
Pink Floyd
Wish You Were Here
INTRO
Strum a few Times Strum a few Times Tuning: EADGBe
^V^ ^V^
e---------------------3-------------------3---| h - hammer on
B---------------------3-------------------3---|
G---------------------0-------0-----------0---| p - pull off
D-------------0--2----0----2-----2--------0---| * 2 b - bend string up
A------0h2------------2-------------------2---| / - slide up
E---3-----------------x-------------------3---| \ - slide down
x - play 'note'
Strum a few Times Strum a few Times
^V^ ^V^ with heavy damping
e---------------------3--------------------------------3---|
B---------------------3--------------------------------3---|
G---------------------0--------------------------------2---|
D-------------0--2----0------2-----0-------------------2---| * 2
A------0h2------------2------------------2-------0-----0---|
E---3-----------------x--------------------------------0---|

e---3---|
B---3---|
G---0---|
D---0---| ( Guitar 1 continues to play over the solo )
A---2---|
E---3---|

Solo: ( 2nd Guitar )

e----------------------------------------------------------|
B----------3---5--------3----------------------------------|
G-----2/4-----------4--------4----2---0--------------------|
D------------------------------------------0---------0---0-|
A-----------------------------------------------1/2--------|
E----------------------------------------------------------|

e----3/5/3-------------------------------------------------|
B----3/5/3----3/5/3----3----3/5/3--------------------------|
G-------------2/4/2----0----2/4/2---2p0----2/4-------------|
D------------------------------------------3/5-------------|
A----------------------------------------------------------|
E----------------------------------------------------------|

e---------------------------------------------------------------------|
B----------3--------5----5b---5----3--------------3-----5-------------|
G----2/4-------4----------------------2----4b----------------4b-----2-|
D---------------------------------------------------------------------|
A---------------------------------------------------------------------|
E---------------------------------------------------------------------|

e---------------------------------------------------------------------|
B---------3---------5-----5b-----5------3-----------------------------|
G----2/4------4-----------------------------2----4b-------------------|

159
D---------------------------------------------------------------------|
A---------------------------------------------------------------------|
E---------------------------------------------------------------------|
End Of Solo
C D Chords Used:
So, so you think you can tell C D Am G
AM e--0--|--2--|--0--|--3--|
Heaven from Hell B--1--|--3--|--1--|--0--|
G G--0--|--2--|--2--|--0--|
Blue Skies from pain D--2--|--0--|--2--|--0--|
D A--3--|--0--|--0--|--2--|
Can you tell a green field E--0--|--0--|--0--|--3--|
C
From a cold steel rail
AM
A smile from a veil
G
So you think you can tell
C
Did they get you to trade
D
Your heroes for ghosts
AM
Hot Ashes for trees
G
Hot air for a cool breeze
D
Cold comfort for change
C
Did you exchange?
AM
A walk on part in the war
G
For a lead role in a cage

SOLO 2 ( Guitar 1 )( Guitar 2 plays Intro over Solo )


e--------10-10-------10-10---12-10-10------|
B---10/12-------10/12-----------------12---|
G------------------------------------------|
D------------------------------------------|
A------------------------------------------|
E------------------------------------------|
e---------10-10-10-12-10------------------------|
B---10/12--------------------12p10p8------------|
G-----------------------------------7-7---9-7---|
D---------------------------------------9-------|
A-----------------------------------------------|
E-----------------------------------------------|
e----------------10-10-10-----------12------------|
B-----8-10-10/12---------10--12/14----14p12p10----|
G---9---------------------------------------------|
D-------------------------------------------------|
A-------------------------------------------------|
E-------------------------------------------------|
e---------10---------------------------12---------------|
B---10/12----12p10p8-10-12-12-8--12/14-----14p12p10--8--|
G-------------------------------------------------------|
D-------------------------------------------------------|
A-------------------------------------------------------|
E-------------------------------------------------------|

C D
How I wish, how I wish you were here
Am G
We're just two lost souls swimming in a fish bowl
D
Year after year.
C

160
Running over the same old ground.
AM
What have we found the same old fears
G
Wish you were here...

( Intro is played until the End )


Poison G
EADGBe
:320033
Every rose has its thorn Cadd9 :032033
C :032010
D :000232
INTRO: G Cadd9

G Cadd9
We both lie silently still in the dead of the night. Although we
G Cadd9
both lie close together we feel miles apart inside. Was it
G Cadd9 G Cadd9
something I said or something I did? Did my words not come out right? Though I
D C
tried not to hurt you, though I tried. But I guess that's why they say

G Cadd9
ev'ry rose has its thorn, just like
G Cadd9
ev'ry night has its dawn. Just like
G D C G
ev'ry cowboy sings his sad, sad song
C
ev'ry rose has its thorn

G Cadd9 G Cadd9

G Cadd9
Listen to our favourite song playing on the radio hear the
G Cadd9
D.J. say love's a game of easy come and easy go. But I
G Cadd9 G Cadd9
wonder does he know, has he ever felt like this? And I
D C
know that you'd be right now if I could've let you know somehow. I guess

G Cadd9
ev'ry rose has its thorn, just like
G Cadd9
ev'ry night has its dawn. Just like
G D C G
ev'ry cowboy sings his sad, sad song
C
ev'ry rose has its thorn

Em D C G
Though it's been a while now I can still feel so much pain.
Em D C
Like the knife thats cuts you, the wound heals, but the scar,
G Cadd9 G Cadd9
that scar remains

G Cadd9
I know I could have saved our love that night if I'd known what to say
G Cadd9
Instead of making love we both made our separate ways. Now I
G Cadd9 G Cadd9
hear you've found somebody new and that I never meant that much to you. To
D C
hear that tears me up inside and to see you cuts me like a knife. I guess

G Cadd9
ev'ry rose has its thorn, just like

161
G Cadd9
ev'ry night has its dawn. Just like
G D C G
ev'ry cowboy sings his sad, sad song
C D G
ev'ry rose has its thorn
Queen
Bohemian Rhapsody

Gm
Open your eyes
Bb Eb
Look up to the skies and see
Cm7 F
I'm just a poor boy, I need no sympathy
B Bb A Bb B Bb A Bb
easy come, easy go, little high, little low
Eb Bb/D C#dim F7/C F7/Eb Bb
Any way the wind blows, doesn't realy matter to me to me.
Bb Gm
Mama just killed a man
Cm Cm7 F
put a gun against his head, pulled my trigger, now he's dead
Bb Gm Cm G5+/B Eb/Bb Adim
Mama life had just begun, but now I've gone and thrown it all away
Eb Bb/D Fm C/E Ab/Eb Ddim Bb Bb6 Bb7
Mama Oooo didn't mean to make you cry, if I'm not back again this time
Eb
tomarrow,
Bb/D Cm Abm Eb Ab/Eb Eb Cdim Bb7/sus4/b9 Bb
Carry on, carry on as if nothing really matters.
Gm
Too late, my time has come
Cm Cm7 F
Sent shivers down my spine, body's achin' all the time,
Bb Gm
Goodbye everybody, I've got to go,
Cm G5+/B Eb/Bb Adim Abmaj7 Eb/G
Gotta leave you all behind and face the truth.
Eb Bb/D Cm Fm C/E Ab/Eb Ddim Bb Bb6 Bb7
Mama Ooo I don't want to die, I sometimes wish I'd never been born at all.

(Solo de guitarra)

D/A A Adim A D/A A Adim


I see a little silhouetto of a man
A D/A A D/A A Adim A D/A A
Scarmouch Scarmouch will you do the fandango?
C#/G# G# C#/G# G# C/G E7 A
Thunder bolts and lightening very very frightening me

Galileo Galileo Galileo Galileofigaro Mangnifico oh oh oh


B Bb A Bb B Bb A Bb
I'm just a poor boy nobody loves me
Ab/Eb Eb Ebdim Eb Ab/Eb Eb Ebdim Eb
He's just a poor boy, from a poor family
Ab Eb/G F7 Bb
spare him his life from this monstrosity
Ab/Eb Eb Cdim Bb7/sus4/b9
B Bb A Bb B Bb Bbdim

162
Easy come easy go will you let me go?
Bb5 Eb Bb5 Eb Bbsus4 Bb Bbsus4 Bb
Bismillah NO, we will not let you go
Let him go
Bb Eb Bb Bbsus4 Bb Bbsus4 Bb
Bismillah we will not let you go Let him go
Bb Eb Bb Bbsus4 Bb Bbsus4 Bb
bismillah we will not let you go Let me go
Bbsus4 Bb Bbsus4 Bb Bbsus4 Bb Bbsus4 Bb
will not let you go let me go will not let you go
let me go oh oh oh oh oh
A5 D Db Gb Bb5 Eb5 Eb Ab Eb Bb
no no no no no no no Oh mamamia mamamia mamamia let me go
Eb Ab D7 Gm Bb5
Beelzebub has a devil put aside for me for me for me

Cm Gm Cm Gm
Nothing really matters, anyone can see
Cm Abm Ab/Bb Eb Ab/Eb Eb
nothing raelly matters, nothing really matters to me
Ebdim Bb/D Db7+/13 C Dbdim C F
Bb F Fdim C7sus4 F
Any way the wind blows

163
Queen
I Want To Break Free
Orchestra : (Fade in)
F#sus4 F# A B C#m B A B C#m B A B E
(Use different progressions of A B and C#m going up)

No Chd E
I want to break free
This is the E chord
I want to break free used. The ordinary
E chord can also be
I want to break free from your lies used. You can also
use [ E Esus4 E ]
A where E is used.
You’re so self satisfied I don’t need you
E E
I’ve got to break free -------
B A E -------
God knows God knows I want to break free ---9---
---9---
---7---
No Chd E -------
I’ve fallen in love Times 4

I’ve fallen in love for the first time


A
And this time I know it’s for real
E
I’ve fallen in love yeah
B A E A E A E
God knows God knows I’ve fallen in love
B A
It’s strange but it’s true
B A
I can’t get over the way you love me like you do
C#m
But I have to be sure
F#sus4 F#
When I walk out that door
A B C#m B
Oh how I want to be free baby
A B C#m B
Oh how I want to be free
A B E
Oh how I want to break free

( Synth Solo ) Chords : E A E B A E B A E


E
But life still goes on

I can’t get used to living without living without


A
Living without you by my side
E
I don’t want to live alone hey
B A E
God knows got to make it on my own
B
So baby can’t you see
A E
I’ve got to break free
A E

164
I’ve got to break free
A E
I want to break free yeah
A E
I want I want I want I want to break free....
Queen
Love of my Life

C Am F#Dim:
Love of my life, you've hurt me e|2|
Dm G B|4|
You've broken my heart and now you leave me G|2|
C F D|4|
Love of my life, can't you see? A|3|
Dm Am e|2|
Bring it back, bring it back
Bb F
Don't take it away from me
Bb Am Dm G C F
Because you don't know what it means to me

C Am
Love of my life, don't leave me
Dm G
You taken my love you now desert me
C F
Love of my life can't you see?
Dm Am
Bring it back, bring it back
Bb A
Don't take it away from me
Bb Am Dm G C F
Because you don't know what it means to me

Dm Am
You will remember when this is flown over
Bb F
And everything's all by the way
Dm Am F#Dim
When I grow older I will be there at your side
Gm
To remind you how I still love you
C7
I still love you

Dm Am
Back, hurry back
Bb F
Please bring it back home to me
Bb Am Dm G C
F
Because you don't know what it means to me
Dm
Love of my life
Am Bb Bbm F
Love of my life hu.. hu.. yeah yeah yeah

165
Rata Blanca
Mujer Amante
INTRO G Em Bm
e||--------------------|-------------------|---------------------|
B||--------------------|-------------------|---------------------|
G||--------------------|-------------------|---------------------|
D||--12----------------|--9----------------|---------------------|
A||--10----------------|--7----------------|---------------------|
E||--------------------|-------------------|--7------10----------|
G D D
----------------------|--------------------|------------------------||
----------------------|--------------------|------------------------||
----------------------|--------------------|------------------------||
----------------------|--------------------|--------7--7/-9----7----||
--10----------9---7---|--9--------------2--|--7--9--5--5/-7----5----||
----------------------|-----------------0--|--5--7------------------||
Bm A
Siento el calor de toda tu piel en mi cuerpo otra vez
Bm G D A
Estrella fugaz que enciende mi sed misteriosa mujer
G Bm
Por tu amor sensual cunto me das
A Em D
Haz que mi sueño sea una verdad
G Bm
Dame tu alma hoy, hacia el ritual
A Em F#
Llevame al mundo donde pueda soñar
Bm D A Bm
Uh, debo saber si en verdad, en algn lado estas
Bm D A Bm
Voy a buscar una señal, una canción
Bm D A Bm
Uh, debo saber si en verdad, en algún lado estas
Bm D A Bm A G Em
Solo el amor que tu me das me ayudará
Bm A
Al amanecer tu imagen se va, misteriosa mujer
Bm G D A
Dejaste en mí, lujuria total, hermosa, sensual
G Bm
Corazón sin Dios dame un lugar
A Em D
En ese mundo tibio casi irreal
G Bm
Deberé buscar una señal
A Em F#
En aquel camino por el que vas.
Bm D A Bm
Uh, debo saber si en verdad, en algn lado estas
Bm D A Bm
Voy a buscar una señal, una canción
Bm D A Bm
Uh, debo saber si en verdad, en algún lado estas
Bm D A Bm A G Em
Solo el amor que tu me das me ayudará
SOLO 1
G
e||------------------------------|
B||--10b---10b-10b-10b---10------|
G||--------------------------12--|
D||------------------------------|
A||------------------------------|
E||------------------------------|

166
Em Bm
--------------------12b-----|----12---------------------------|
----------------------------|--------15--14h15-14-12~-----14--|
--11h12-11-9~---------------|---------------------------------|
----------------------------|---------------------------------|
----------------------------|---------------------------------|
----------------------------|---------------------------------|
Bm A
---------------------14---15---14--|--12-----------------12------------|
--15---14h15-14--12----------------|-------15---14h15-14------15---14--|
-----------------------------------|-----------------------------------|
-----------------------------------|-----------------------------------|
-----------------------------------|-----------------------------------|
-----------------------------------|-----------------------------------|
Em D
----------------------------------|-------------------------|
--12h14-12--10--------------------|-------------------------|
-----------------12--11---9---12--|--11b-----11-9-11--------|
----------------------------------|-------------------------|
----------------------------------|-------------------------|
----------------------------------|-------------------------|
D G
------------12--14---15---17--|--17b--------------17b--17--|
--14---15---------------------|----------15--15------------|
------------------------------|----------------------------|
------------------------------|----------------------------|
------------------------------|----------------------------|
------------------------------|----------------------------|
G Bm
--17b--------------17b--19--|--21---19---21--21b--21---19--|
----------15--15------------|------------------------------|
----------------------------|------------------------------|
----------------------------|------------------------------|
----------------------------|------------------------------|
----------------------------|------------------------------|
Bm A
--14~-------14---15---17--|--15b---15--14------------|
--------------------------|----------------17~-------|
--------------------------|--------------------------|
--------------------------|--------------------------|
--------------------------|--------------------------|
--------------------------|--------------------------|
Em F#
--15---14-------15/19--18---19--|--18---19---18--20b---20b---|
------------17------------------|----------------------------|
--------------------------------|----------------------------|
--------------------------------|----------------------------|
--------------------------------|----------------------------|
--------------------------------|----------------------------|
F# G (Tu presencia..)
--20b---20b---20b---20b---|--19~---------------||
--------------------------|--------------------||
--------------------------|--------------------||
--------------------------|--------------------||
--------------------------|--------------------||
--------------------------|--------------------||

G Bm
Tu presencia marc en mi vida el amor, lo se
A Bm
Es difícil pensar, el vivir ya sin vos.
G Bm
Corazón sin Dios dame un lugar
A Em F#
En ese mundo tibio casi irreal

Bm D A Bm
Uh, debo saber si en verdad, en algn lado estas
Bm D A Bm
Voy a buscar una señal, una canción
Bm D A Bm
Uh, debo saber si en verdad, en algún lado estas
Bm D A Bm
Solo el amor que tu me das me ayudará

167
Rosana
A Fuego Lento
La Re
A fuego lento tu mirada
Mi La
A fuego lento tu o nada
Fa#m Re
Vamos fraguando esta locura
Mi La
Con la fuerza de los vientos y el sabor de la ternura
Re
Sigue el camino del cortejo
Mi La
A fuego lento a fuego viejo
Fa#m Re
Sigue avivando nuestra llama
Mi La
Con todo lo que te quiero y lo mucho que me amas

CORO
La7 Re
A fuego lento me haces agua
Mi La
Contigo tengo el alma enamorada
Fa#m Sim
Me llenas, me vacias, me desarmas
Mi La
Ay ay ay amor cuando me amas
La7 Re
A fuego lento revoltosas
Mi La
Caricias que parecen mariposas
Fa#m Sim
Se cuelan por debajo de la ropa
Mi La
Y van dejando el sentimiento amor forjado a fuego lento

Re
A fuego lento mi cintura
Mi La
A fuego lento y con lisura
Fa#m Re
Vamos tramando este alboroto
Mi La
Con la danza de los mares y el sabor del poco a poco
Re
Siguo el camino del cortejo
Mi La
A fuego lento a fuego añejo
Fa#m Re
Sigo avivando en nuestra llama
Mi La
Tantos dias como sueños, tantos sueños que no acaban

(CORO)
Re Mi Fa#m Si#m
A fuego lento, a fuego lento ay ay ay ay ay....
Re Mi

168
A fuego lento, a fuego lento,, a fuego lento, a fuego lento...

(CORO)X2 EN LA SEGUNDA VEZ, EL ÚLTIMO VERSO ES ASÍ:


Mi La
Y van dejando el sentimiento amor forjado a fuego,amor forjado a fuego,amor forjado a fuego lento
Rosana
Si Tu No Estás Aquí

Re Fa#m Sol Lamaj9


-------0-------2/3-----------3-----------------0-
-----3---2---------------3-----3-------------2---
---2-------2-----------4---4-----4-----4---4-----
-0-----------4-------5---------------2---2-------
-------0---------------------------0-------------
---------2---------3-----------------------------

Re Fa#m Sol
No quiero estar sin ti
La Re
Si tu no estas aqui me sobra el aire
Fa#m Sol
No quiero estar asi
La Re
Si tu no estas la gente se hace nadie

CORO
Fa#m Sol
Si tu no estas aqui no se
La Re
Que diablos hago amandote
Fa#m Sol
Si tu no estas aqui sabras
La
Que Dios no va a entender por que te vas

Re Fa#m Sol
No quiero estar sin ti
La Re
Si tu no estas aqui me falta el sueño
Fa#m Sol
No quiero andar asi
La Re
Latiendo un corazon de amor sin dueño

(CORO)

Re Fa#m
Derramare mis sueños si algun dia no te tengo
Sol La Re
Lo mas grande se hara lo mas pequeño
Sol
Paseare en un cielo sin estrellas esta vez
La Fa#m B7
Tratando de entender quien hizo un infierno el paraiso
Sol La
No te vayas nunca porque
Re Fa#m Sol
No puedo estar sin ti
La Re

169
Si tu no estas aqui me quema el aire

(CORO)X2
Scorpions
Wind Of Change

INTRO F Dm Am7 G C
F, Dm, F, Dm, Am7, Dm Am7, G e |1|-|-| e |1|-|-| e |-|-|-| e |-|-|-4-| e |-|-|-|
B |1|-|-| B |-|-|3| B |1|-|-| B |-|-|(3)| B |1|-|-|
G |1|2|-| G |-|2|-| G |-|-|-| G |-|-|---| G |-|-|-|
C Dm D |1|-|4| D |-|-|-| D |-|2|-| D |-|-|---| D |-|2|-|
I follow the Moskva A |1|-|3| A |-|-|-| A |-|-|-| A |-|1|---| A |-|-|3|
E |1|-|-| E |-|-|-| E |-|-|-| E |-|-|-2-| E |-|-|-|
C
Down to Gorky Park F9 Am/F Am E E7
Dm Am7 G e x|-|-|-| e |-|---|-| e |-|-|-| e |-|-|-| e |-|-|-|
Listening to the wind of change B x|-|-|-| B |1|---|-| B |1|-|-| B |-|-|-| B |-|-|4|
G |-|-|-| G |-|-3-|-| G |-|3|-| G |1|-|-| G |1|-|-|
C Dm D |-|-|4| D |-|(2)|4| D |-|2|-| D |-|3|-| D |-|3|-|
An August summer night A |-|-|3| A |-|---|-| A |-|-|-| A |-|2|-| A |-|2|-|
E |1|-|-| E |-|---|-| E |-|-|-| E |-|-|-| E |-|-|-|
C
Soldiers passing by
Dm Am7 G
Listening to the wind of change

INTERLUDE
F9, Dm, F, Dm, Am7, Dm Am7, G

C Dm
The world is closing in
C
Did you ever think
Dm Am7 G
That we could be so close, like brothers
C Dm
The future's in the air
C
I can feel it everywhere
Dm Am7 G
Blowing with the wind of change

CORO
C G Dm G
Take me to the magic of the moment
C G
On a glory night
Dm G Am
Where the children of tomorrow dream away
Am/F G
In the wind of change

C Dm
Walking down the street
C
Distant memories
Dm Am7 G
Are buried in the past forever

C Dm
I follow the Moskva

170
C
Down to Gorky Park
Dm Am7 G
Listening to the wind of change
C G Dm G
Take me to the magic of the moment
C G
On a glory night
Dm G Am
Where the children of tomorrow share their dreams
Am/F G
With you and me

C G Dm G
Take me to the magic of the moment
C G
On a glory night
Dm G Am
Where the children of tomorrow dream away
Am/F G
In the wind of change

Am G
The wind of change blows straight
Am
Into the face of time
G
Like a stormwind that will ring
C
The freedom bell for peace of mind
Dm
Let your balalaika sing
E E
What my guitar wants to say

SOLO
F G, E Am, F G, Am,
F G, E7 Am, Dm, E

C G Dm G
Take me to the magic of the moment
C G
On a glory night
Dm G Am
Where the children of tomorrow share their dreams
Am/F G
With you and me

C G Dm G
Take me to the magic of the moment
C G
On a glory night
Dm G Am
Where the children of tomorrow dream away
Am/F G
In the wind of change

OUTRO
F, Dm, F, Dm, Am7, Dm

171
Silvio Rodriguez
Ojalá
INTRO: Dm

Cada vez que aparece el acorde Dm tocar:

1º--------- 10-------------- 9-------------- 8 -------------- 7 ---------


2º------ 10--- 10-------- 10--- 10-------- 10--- 10-------- 10-- 10-------
3º--- 10--------- 10-- 10--------- 10-- 10--------- 10-- 10-------- 10----
4º- 0--------------- 0----------------0--------------- 0------------------
5º------------------------------------------------------------------------
6º------------------------------------------------------------------------

Dm
Ojala que las hojas no te toquen el cuerpo cuando caigas
C Dm
para que no las puedas convertir en cristal
Em A
Ojala que la lluvia deje de ser
D A/C# Bm Bm/A
milagro que baja por tu por tu cuerpo
A G F# Bm Bm/A E7 E7sus4-e7
ojala que la luna pueda salir sin ti
Dm Dm/7 BbMaj7 A Dm
Ojala que la tierra no te bese los pasos

Dm C
Ojala se te acabe la mirada constante,
Fm
la palabra precisa la sonrisa perfecta
G C
Ojala pase algo que te borre de pronto
E7 Am Am/G F
una luz cegadora, un disparo de nieve,
G C
ojala por lo menos que me lleve la muerte
E7 Am Am/g F
para no verte tanto, para no verte siempre
Dm C
en todos los segundos...en todas las visiones
F G Dm
Ojala que no pueda tocarte ni en canciones

Ojala que la aurora no de gritos que caigan en mi espalda


Ojala que tu nombre se le olvide esta voz
Ojala las paredes no retengan tu ruido de camino cansado
Ojala que el deseo se vaya tras de ti
a tu viejo gobierno de difuntos y flores

Ojala se te acabe la mirada constante,


la palabra precisa la sonrisa perfecta
Ojala pase algo que te borre de pronto
una luz cegadora, un disparo de nieve,
ojala por lo menos que me lleve la muerte
para no verte tanto, para no verte siempre
en todos los segundos...en todas las visiones
Ojala que no pueda tocarte ni en canciones
Ojala pase algo que te borre de pronto
una luz cegadora, un disparo de nieve,
ojala por lo menos que me lleve la muerte
para no verte tanto, para no verte siempre
en todos los segundos...en todas las visiones
C

172
Ojala que no pueda tocarte ni en canciones

FINAL [ C G/B Am Am/G F Em C Dm C ]


Sin Bandera
Entra En Mi Vida

INTRO

Do-Fa-Do-Rem-Mim-Fa
E-----------------------5---------------------------------------------|
A-3----------------------7----------------------3---------------------|
D---5---------------------5------------------------5------------------|
G-----5------9-7-4---------5-------14-12-9------------5------9-7-4----|
B-------3-5---------3-5-----5----------------10----------3-5-------3-5|
e------------8-7-3-----------------13-12-8-------------------8-7-3----|

E--------------------------
A-5-----7------8-----------|
D---7-----9-----10---------|
G-----5-----7-----10-------|
B------6-----8------8------|
e---------------------8----|

Do Fa
Buenas noches, mucho gusto, eras una chica mas
Do Fa
despues de cinco minutos ya eras alguen especial
Rem MIm
Sin hablarme, sin tocarme, algo dentro se encendio
Rem Sol
en tus ojos se hacia tarde y me olvidaba del reloj.

Do Fa
Estos dias a tu lado me enseñaron que en verdad
Do Fa
no hay tiempo de terminar para comenzar a amar
Rem Mim
Siento algo tan profundo que no tiene explicacion
Rem Sol
no hay razon ni logica en mi corazon.

Do lam
CORO: Entra en mi vida, te abro la puerta
Fa Sol
se que en tus brazos ya no habra noches desiertas
Do lam
Entra en mi vida, yo te lo ruego
Rem Mim Fa
te comence por extrañar, pero empece
Sol Do
a necesitarte luego.

Do Fa
Buenas noches, mucho gusto, ya no existe nadie mas
Do Fa
despues de este tiempo juntos, no puedo volver atras

173
Rem Mim
Tu me hablaste, me tocaste y te volviste mi ilusion
Rem Sol
quiero que seas dueña de mi corazon.
Do lam
CORO: Entra en mi vida, te abro la puerta
Fa Sol
se que en tus brazos ya no habra noches desiertas
Do lam
Entra en mi vida, yo te lo ruego
Rem Mim Fa
te comence por extrañar, pero empece
Sol Fa
a necesitarte luego.

Do Fa
Entra en mis horas, salvame ahora
Lam Sim Fa Sol La
abre tus brazos fuerte y dejame entrar

(aqui aumenta un tono)

Re sim
CORO: Entra en mi vida, te abro la puerta
Sol La
se que en tus brazos ya no habra noches desiertas
Re sim
Entra en mi vida, yo te lo ruego
MIm Fa#m Sol
te comence por extrañar, pero empece
La Re Sol
a necesitarte luego

Re
te comence por extrañar,
MIm Fa#m Sol La Re
pero empece a necesitarte luego

E-----------------------7--------------------------------------------|
A-5----------------------9--------------------5----------------------|
D---7---------------------7-----------------------7------------------|
G-----7------11-9-6--------7-------16-14-11-----------7-------11-9-6-|
B-------5-7---------5-7-----7----------------12----------5-7---------|
e------------10-9-5----------------15-14-10-------------------10-9-5-|
Te comencé por extrañar

E-------------------------------------------|
A-------7----------9------10----------------|
D----------9---------11-----12--------------|
G--------------7-------9------12------------|
B----5-7----------6------8------10----------|
e----------------------------------10-------|
pero empecé a necesi--taaaaaaaarte luego....

174
Sin Bandera
Mientes Tan Bien

INTRO
(Debes tocar un arpegio del acorde Sol, luego uno en Mim y después tocas el punteo de más abajo)
Compás
4/4 : Sol Sol Sol Sol - Mim Mim Mim Mim -

Sol Sol Mim E A D G B E


E------3--5-3-----------3--5-3-------- Do : X 3 2 0 1 0 (Do Mayor)
B---0-3------3-0-----0-3------3-0----- Re : X X 0 2 3 2 (Re Mayor)
G--0------------0---0------------0---- Mim : 0 2 2 0 0 0 (Mi menor)
D------------------------------------- Sol : 3 2 0 0 0 3 (Sol Mayor)
A------------------------------------- Sol : 3 5 5 4 3 3 (Sol Mayor con cejillo)
E------------------------------------- Lam : X 0 2 2 1 0 (La menor)
Lam7 : X 0 2 0 1 0 (La menor 7)

ESTROFA 1.1
Do Re Sol Mim
Que te quedaras conmigo una vida entera,
Do Re Sol Mim
que contigo, adiós inviernos, sólo primaveras,
Do Lam
que las olas son de imagen, no de agua salada,
Do Lam
y yo te creo todo y tú no me das nada...
Do Re
tú no me das nada...

ESTROFA 1.2
Do Re Sol Mim
Que si sigo tu camino llegaré hasta el cielo,
Do Re Sol Mim
tú me mientes en la cara y yo me vuelvo ciego,
Do Lam
yo me trago tus palabras, tú juegas un juego
Do Lam
y me brilla el mundo cuando dices luego...
Do Re
cuando dices luego...

ESTROFA PRECORO
Mim Do Re
Cuando dices *siento*, siento que eres todo,
Sol Mim
cuando dices vida yo estaré contigo,
Do Re
tomas de mi mano y por dentro lloro,
Sol Mim
aunque sea mentira, me haces sentir vivo,
Lam7 Do Re
aunque es falso el aire... siento que respiro...

CORO
Do Re Sol
Mientes tan bien... que me sabe a verdad...
Mim Sol Mim

175
todo lo que me das... y ya te estoy amando...
Do Re Mim
mientes tan bien... que he llegado a imaginar...
Sol Lam7
que en mi amor llenas tu piel...
Do Lam
y aunque todo es de papel...
Re Sol Mim
mmmmm... mientes tan bien...

ESTROFA PRECORO
Mim Do Re
Cuando dices *siento*, siento que eres todo,
Sol Mim
cuando dices vida yo estaré contigo,
Do Re
tomas de mi mano y por dentro lloro,
Sol Mim
aunque sea mentira, me haces sentir vivo,
Lam7 Do Re
aunque es falso el aire... siento que respiro...

CORO FINAL
Do Re Sol
Mientes tan bien... Que me sabe a verdad...
Mim Sol Mim
todo lo que me das... y ya te estoy amando...
Do Re Mim
mientes tan bien... que he llegado a imaginar...
Sol Lam7
que en mi amor llenas tu piel...
Do Lam
y aunque todo es de papel...
Re Sol Lam
mmmmm... mientes tan bien... uuuuuuh...
Do Re
y aunque todo es de papeeel... uuuuuuh...
Sol
mientes lo sé...

FINAL
Sol Sol Sol
E------3--5-3----------3---5--3----------------3--
B---0-3------3-0----0-3----------3--0---------3---
G--0------------0--0-------------------0-----4----
D-------------------------------------------5-----
A------------------------------------------5------
E-----------------------------------------3-------

176
Soda Stereo
Corazón Delator
Em G9
Un señuelo
Em G9
hay algo oculto en cada sensación
Am C9
ella parece sospechar
A7 CMaj7
parece descubrir en mi
Bm7
debilidad
CMaj7 B7sus4-B7
los vestigios de una hoguera

F#m F Em
oh mi corazón se vuelve delator
F#m F
traicionándome

Por descuido
fui víctima de todo alguna vez
ella lo puede percibir ya nada puede impedir en mi
fragilidad
es el curso de las cosas

oh mi corazón se vuelve delator


D/C A-g
se abren mis esposas...

Em C
un suave látigo
Em C
una premonición
Bm Bb F D C
dibujan llagas en las manos

un dulce palpito
la clave intima
se van cayendo de mis labios
(mantra) D-C-A-G

Un señuelo
hay algo oculto en cada sensación
ella parece sospechar
parece descubrir en mi
que aquel amor
es como un océano de fuego

oh mi corazón se vuelve delator


la fiebre volverá de nuevo

Un suave látigo ...

Un dulce palpito
la clave intima
se van cayendo de mis labios...

D C Em

177
Como un mantra
de mis labios
de mis labios
D-C-Em
D-C-Em repite
Soda Stereo
Ella Usó Mi Cabeza Como Un Revolver
INTRO (todo con cejillo)
A# - A – G# - G x3
F – G# - G – F# x4

F Em Asus2
Ella uso mi cabeza,
C F G# G F#
como un revólver
F Em Asus2
e incendio mi conciencia
C F G# G F#
con sus demonios
F Em Asus2
Me vi llegando tarde
A G
tarde a todo.
A# A
Después de un baño cerebral,
A#
estaba listo para ser amado.
G# G
pasa el tiempo y ahora creo que
G# G F# F
el vacío es un lugar normal.
F Em Asus2
Ella uso mi cabeza...
C (F G# G F#)x2
como un revolverF
Em Asus2
no creerías las cosas
C F
que he hecho por ella
F Em
cobardemente...
C F
pero sin vergüenza
F Em Asus2
era una piedra en el agua,
A G
seca por dentro
A# A
Así se siente cuando la verdad
A#
es la palabra sometida
G# G
fui tan dócil como un guante y
G# G F#
tan sincero como pude
F Em Asus2
Ella uso mi cabeza...
C (F G# G F#)x4
como un revolver

F G# B C / F G# C B G# B G# Todo con cejilla

(A# - A – G# - G)x3

178
F Em Asus2
No creerías las cosas
C F G# G F# F
que he hecho por ella...
Soda Stereo D/F#
EADGBe
:200232
Té para 3 Em9 :022032
G :320033
A7 :002223
D/F# Em9
Las tazas sobre el mantel Este es el ritmo
D/F# Em9 de la canción
la lluvia derramada --------------
G --------------
un poco de miel || ^ ^ ||
|| | | | | | ||
A7 Em9
|| | | | | | ||
un poco de miel no basta. || | | | | | ||
|| v v v ||
--------------
D/F# Em9
El eclipse no fue parcial
D/F# Em9
y cegó nuestras miradas
G
te ví que llorabas
A7 Em9
te ví que llorabas por él
D/F#
té para tres

Em9 D/F# Em9 G A7 Em9

D/F# Em9
un sorbo de distracción
D/F# Em9
buscando descifrarnos
G
no hay nada mejor
A7 Em/9
no hay nada mejor que casa
D/F#
un té para tres

Em/9 D/F# Em/9 G A7

179
Sui Generis G Fmaj7 C Dsus D

Canción Para Mi Muerte


G
Quisiera saber tu nombre,
G Fmaj7
Hubo un tiempo en que fui hermoso tu lugar, tu dirección,
Fmaj7 C
y fui libre de verdad y si te han puesto teléfono
C Dsus D
guardaba todos mis sueños también tu numeración.
Dsus D G
en castillos de cristal. Te suplico que me avises
G Fmaj7
Poco a poco fuí creciendo si me vienes a buscar
Fmaj7 C
y mis fábulas de amor no es porque te tenga miedo
C Dsus D
se fueron desvaneciendo solo me quiero arreglar.
Dsus D
como pompas de jabón. (CORO)X2

FINAL: G Fmaj7 C Dsus D


CORO
Bm Em
Te encontraré una mañana
Bm Em
dentro de mi habitación
C Dsus D
y prepararás la cama
G
para dos.

TARAREO
G Em Am D

INTERMEDIO
G C G C

G
Es larga la carretera
Fmaj7
cuando uno mira atrás
C
vas cruzando las fronteras
Dsus D
sin darte cuenta quizás.
G
Tómate del pasamanos
Fmaj7
porque antes de llegar
C
se aferraron mil ancianos
Dsus D
pero se fueron igual.

(CORO)

INTERMEDIO
180
Sui Generis G D
Rasguña Las Piedras Y por fin veo tus ojos
Em Bm
que lloran desde el fondo
G D C G/B F
Detrás de las paredes y empiezo a amarte con toda mi piel.
Em Bm G D
que ayer te han levantado Y escarbo hasta abrazarte
C G/B F Em Bm
te ruego que respires todavía. (Dsus4-D) y me sangran las manos
G D C Bm F D
Apoyo mis espaldas pero qué libres vamos a crecer
Em Bm
y espero que me abraces C G/B
C Bm F D Y rasguña las piedras,
atravesando el muro de mis días. C G/B
y rasguña las piedras.
C G/B C Em D C G/B Am7 D
Y rasguña las piedras, y rasguña las pie - e-dras-haa-aas-ta mí.
C G/B
y rasguña las piedras. E/-------------3-3---3-3-----3-3----3-3-----
B/---0-slide-3------3-------3-----3---------
C Em D C G/B Am7 D
G/------------------------------------------
y rasguña las pie - e-dras-haa-aas-ta mí. D/------------------------------------------
A/------------------------------------------
INTER:(G-D/F#-C/E-D-C) E/------------------------------------------

G D7 C G/B
E/------------------------------------------
Y rasguña las piedras,
B/------------------------------------------
G/------------------------------------------ C G/B
D/---------------0-2----3-4----------------- y rasguña las piedras.
A/----2---3-4------------------------------- C Em D C G/B Am7 D
E/--3--------------------------------------- y rasguña las pie - e-dras-haa-aas-ta mí.

G D
Apenas perceptibles, G D7 G
Em Bm E/--------------------------------------3---//
escucho tus palabras B/--------------------------------------3---//
G/--------------------------------------4---//
C G/B F
D/---------------0-2----3-4-------------5---//
se acercan las bandas de rock and roll A/----2---3-4---------------------------5---//
G D E/--3-----------------------------------3---//
y sacuden un poco,
Em Bm
las paredes gastadas
C Bm F D
y siento las preguntas de tu voz.

C G/B D/F# :200232


Y rasguña las piedras, D# :X65342
C G/B C/E :XX2013
y rasguña las piedras. Am7 :X02010
C Em D C G/B Am7 D D7 :XX0212
y rasguña las pie - e-dras-haa-aas-ta mí. G/B :X20033

(INTER)X2
(G C) x2

Am7

Am7 C
D
Y si estoy cansado de gritarte
D# Dsus4 D7
es que sólo quiero despertarteeeeeeeeee.
181
The Beatles
Let It Be

VERSE 1:
C G Am Am7 F
When I find myself in times of trouble, Mother Mary comes to me
C G F (Hit E note on D string)(Hit D String) C
Speaking words of wisdom, let it be
C G Am Am7 F
And in my hour of darkness, She is standing right in front of me
C G F (Hit E note on D string)(Hit D String) C
Speaking words of wisdom, Let it be

CHORUS:
Am G F C
Let it be, let it be, let it be, let it be
C G F (Hit E note on D string)(Hit D String) C
Whisper words of wisdom, let it be

VERSE 2:
C G Am Am7 F
And when the broken hearted people, Living in the world agree
C G F (Hit E note on D string)(Hit D String) C
There will be an answer, let it be
C G Am Am7 F
But though they may be parted, There is still a chance that they will see
C G F (Hit E note on D string)(Hit D String) C
There will be an answer, let it be

CHORUS:
Am G F C
Let it be, let it be, let it be, let it be
C G F (Hit E note on D string)(Hit D String) C
There will be an answer, let it be
Am G F C
Let it be, let it be, let it be, let it be
C G F (Hit E note on D string)(Hit D String) C
Whisper words of wisdom, let it be

(SOLO) (see below, both versions!)

Am G F C
Let it be, let it be, let it be, let it be
C G F (Hit E note on D string)(Hit D String) C
Whisper words of wisdom, let it be

VERSE 3:
C G Am Am7 F
And when the night is cloudy, there is still a light that shines on me
C G F (Hit E note on D string)(Hit D String) C
Shine on till tomorrow, let it be
C G Am Am7 F
I wake up to the sound of music, Mother Mary comes to me
C G F (Hit E note on D string)(Hit D String) C

182
Speaking words of wisdom, let it be
Am G F C
Let it be, let it be, let it be, let it be
C G F (Hit E note on D string)(Hit D String) C
Whisper words of wisdom, let it be
Am G F C
Let it be, let it be, let it be, let it be
C G F (Hit E note on D string)(Hit D String) C
Whisper words of wisdom, let it be

That's right, BOTH SOLOS! And they're right.Listen to the songs for timing. Rock on...

Let It Be -- solo #1
e--------------------------------------------------------------|
b--------------------------------------------------------------|
g--------------------------------------------------------------|
d--------------------------------------------5--7h5------------|
a-------3--3--3/7/5--3--5--5-------3h5--5/7----------7h5--3----|
e-----------------------------3h5------------------------------|
e--------------------------------------------------------------|
b-----------------------------8--------------------------------|
g---------------------5--7/9-----9/7--5--7--5------------------|
d------5--5-----5--7---------------------------7--5------------|
a--/7--------7---------------------------------------7--5--3---|
e--------------------------------------------------------------|
e--------------------------------------------------------------|
b------------------------------------------8--10--8------------|
g----------------/9--7--5--7------------9------------9--7--5---|
d---------/7--5---------------7---5--7-------------------------|
a--/7--3-------------------------------------------------------|
e--------------------------------------------------------------|
e---------------8------------/12--10--8------|
b------------------10--8-----------------10--|
g--------5--/9------------9------------------|
d--5--7--------------------------------------|
a--------------------------------------------|
e--------------------------------------------|
e---------------------------| C G Am Am7 F Legend:
b--8-----10h8---------------| Chords used: e--0--3--0----0---0-- / slide up
g-----9--------9h7--5h7--5--| b--1--3--1----1---1-- \ slide down
d---------------------------|
a---------------------------| g--0--0--2----0---2-- h hammer on
e---------------------------| d--2--0--2----2---3--
a--3--2--0----0---0--
Let It Be -- solo #2 e--x--3--x----x---x--
e----------------------------------------------------------------|
b----------------------------------------------------------------|
g---5----5-------------------------------------5---7b---7br---5--|
d---5h7--5-------------------5--5-----5---5h7--------------------|
a------------7\5---3---3/7---------7-----------------------------|
e----------------------------------------------------------------|
e--------8------------------5------------------------------------|
b---------------------------5------------------------------------|
g--7/9------9\7---5h7---7b-----7br---5---------------------------|
d---------------------------------------7h5---7h5----------------|
a--------------------------------------------------7\5--3h5--3---|
e----------------------------------------------------------------|
e--------------------------------------------------------8--10b--|
b---------------------------8-------8-------8--10--8h10----------|
g--------5--5------5---7/9-----7/9-----7/9-----------------------|
d---5h7---------7------------------------------------------------|
a----------------------------------------------------------------|
e----------------------------------------------------------------|
e--10br---8h10--8----8--15b--------------------------------------|
b------------------------------15br---13--15---15br---13h15--13--|

183
g----------------------------------------------------------------|
d----------------------------------------------------------------|
a----------------------------------------------------------------|
e----------------------------------------------------------------|
The Beatles
Twist and Shout
INTRO
LA RE SOL LA RE SOL LA
Main Riff: D G A
B------------|----7----------------------|
G------------|----7---4-4-6---6666-------|
D------------|----7---5-5-7---7777-------|
A----------4-|5-------5-5-7---7777-----4-|
E------5-7---|--------3-3-5---5555-5-7---|

LA RE SOL LA RE SOL LA
Well shake it up baby now,shake it up baby twist and shout,twist and shout
RE SOL LA RE SOL LA
Come on come on come on come on baby,come on baby now work it on out,work it on out
RE SOL LA RE SOL LA
Well work it on out,work it on out you know you look so good,look so good,
RE SOL LA RE SOL LA
You know you got me goin' now, got me goin' now just like you knew you would knew you would

(break)||: RE SOL LA SOL x4


Solo: D G A | - repeat 3 times - |
B------------------3-2----------|----------3---2---------|
G---------2------4-4-2----2-4-2-|--------4-4---2---2-4-2-|
D---------2----4-5--------2-5-4-|4---4---5---------2-5-4-|
A--------------5----------------|5---5-------------------|
Bass for solo:
G------------------4------------|
D----------------5---7-777775544|
A--------5-----5----------------|
LA LA7
Ahh Ahh Ahh Ahh Ahh

LA RE SOL LA RE SOL LA
Well shake it up baby now,shake it up baby twist and shout,twist and shout
RE SOL LA RE SOL LA
Come on come on come on come on baby,come on baby now work it on out,work it on out
RE SOL LA RE SOL LA
You know you twist it little girl,it little girl you know you twist so fine,twist so fine
RE SOL LA RE
Come on and twist a little closer now,little closer now and let me know that you're mine,
SOL LA
you're mine

(break)||: RE SOL LA SOL x4

LA RE SOL LA RE SOL LA
Well shake it up baby now,shake it up baby twist and shout,twist and shout
RE SOL LA RE SOL LA
Come on come on come on come on baby,come on baby now work it on out,work it on out
RE SOL LA RE SOL LA
You know you twist it little girl,it little girl you know you twist so fine,twist so fine
RE SOL LA RE
Come on and twist a little closer now,little closer now and let me know that you're mine,

(break)||: RE SOL LA SOL x4

184
LA RE SOL LA ENDING: (Drums) D9
Well shake it shake it shake it baby now e-----------------|---------------5---|
LA RE SOL LA B-----------------|---------------5---|
G-----------------|---------------5---|
Well shake it shake it shake it baby now D-7-9-11-12-13-14-|---------------4---|
LA RE SOL LA A-----------------|---------------5---|
Well shake it shake it shake it baby now E-5-7-9--10-11-12-|-------------------|
The Beatles
Yesterday
F A7 Dm
e|-----------------|-------------------0----1--|-0---------------|
b|-----------------|-----0---2---3-------------|----3--3---------|
g|--0--------------|--2------------------------|-----------------|
d|------3---3------|---------------------------|-----------------|
a|-----------------|---------------------------|-----------------|
E|-----------------|---------------------------|-----------------|
Yes-ter-day, all my trou-bles seemed so far a-way
Bb C F Dm G
e|-------------------------------|-------------------|----------------|
b|--3--3---1---------------------|-------------------|----------------|
g|--------------3-----2-------0--|--3---2---2-----0--|----2---0-------|
d|-------------------------------|-------------------|-3----------0---|
a|-------------------------------|-------------------|----------------|
E|-------------------------------|-------------------|----------------|
Now it looks as though they're here to stay, Oh I be-lieve in
Bb F A7 Dm
e|-------------|---------------|-------------------0--1-|--0---------|
b|-------------|---------------|------0---2---3---------|------3--3--|
g|------2---2--|--0------------|--2---------------------|------------|
d|--3----------|------3--3-----|------------------------|------------|
a|-------------|---------------|------------------------|------------|
E|-------------|---------------|------------------------|------------|
yes-ter-day. Sud-den-ly, I'm not half the man I used to be.
Bb C7 F Dm G
e|----------------------------|----------------|------------------|
b|---3-----3--1---------------|----------------|------------------|
g|----------------3---2---0---|-3--2--2-----0--|------2----0------|
d|----------------------------|----------------|--3-----------0---|
a|----------------------------|----------------|------------------|
E|----------------------------|----------------|------------------|
There's a shad-ow hang-ing o-ver me, Oh yes-ter-day came
Bb F A7 Dm Bb C7
e|-------------|------------|-----0--1--0-------|---0-----------------|
b|-------------|------------|--3------------3---|--------3----1----3--|
g|------2---2--|---2---2----|-------------------|---------------------|
d|--3----------|------------|-------------------|---------------------|
a|-------------|------------|-------------------|---------------------|
E|-------------|------------|-------------------|---------------------|
sud-den-ly. Why she had to go I don't know, she would-n't
F A7 Dm Bb C
e|--------|---------|--------0-----1----0----|--0-------------0--|
b|--------|---------|--3-------------------3-|-------3---1-------|
g|--2-----|-2---2---|------------------------|-------------------|
d|--------|---------|------------------------|-------------------|
a|--------|---------|------------------------|-------------------|
E|--------|---------|------------------------|-------------------|
say. I said some-thing wrong now I long for yes-ter-
F A7 Dm
e|-1------------|--------------|-------------------0--1-|---0-----------|
b|-----1--------|--------------|-------0---2---3--------|-------3---3---|
g|--------3--2--|--0-----------|--2---------------------|---------------|
d|--------------|------3---3---|------------------------|---------------|
a|--------------|--------------|------------------------|---------------|
E|--------------|--------------|------------------------|---------------|
day.________ Yes-ter-day, love was such an eas-y game to play.
Bb C7 F Dm G Bb F
e|-----------------------|------------------|---------------|--------------|
b|--3--3--1--------------|------------------|---------------|--------------|
g|------------3---2---0--|--3---2--2-----0--|---2----0------|------2---2---|
d|-----------------------|------------------|-3----------0--|--3-----------|
a|-----------------------|------------------|---------------|--------------|
E|-----------------------|------------------|---------------|--------------|
Now I need a place to hide a-way, Oh I be-lieve in yes-ter-day.
Now repeat from "Why she had to go..." and then play this:
Dm G Bb F

185
e|-------------|------------|
b|-------------|------------|
g|----2--0-----|-----2--2---|
d|-3--------0--|--3---------|
a|-------------|------------|
E|-------------|------------|
Mm mm mm mm mm mm mm
Tito Fernandez
Casa Nueva

Dm Am E7 Am E7
1-------1-/--------0-/-------0-/--------0-/--------0
2---3-----/-----1----/----3----/-------1--/--------
3--2--2---/----2-2---/---1-1---/------2---/------3-
4-0-------/---2------/--0------/-----2----/-----1-1
5---------/--0-------/-2-------/-0--0-----/----0---
6---------/----------/---------/----------/-0/2----

Dm
1---1------3--5
2-3-----5------
3--------------
4--------------
5--------------
6--------------

RECITADO:

Hoy Estamos de Fiesta, tenemos casa nueva


y hay que inagurarla como Dios manda
Hay de Todo, asado, cazuela, champaña
vino blanco, del otro, Mucha gente, y la casa.

Dm Am
La casa nueva, nuesta casa,
E7 Am
fruto de tantos años llenos de penas blancas.
Dm Am
Primero hubo Discursos, (me Acuerdo) me felicitaron,
E7 Am
hasta nos tomaron fotos con la vieja, abrazados.
Dm Am
Luego, y como es lógico, ya no hay nada importante,
E7 Am
importan solo en trago, la comida y el baile.
Dm Am
Yo los miro de lejos, los niños están grandes,
E7 Am
mi hija con su novio, mi hijo y su compadre.

Dm Am
Mi mujer con los Platos, yo con mi copa, solo,
E7 Am Dm (ritmo de Vals)
en un rincon la busco escondido de todos.
Am
¡Hola Vieja!, ¿bailamos?, ¡que importan todos estos!
E7 Am
no importa ni la casa, lo que importa es lo nuestro.
Dm Am
Quítate el delantal quiero verte de fiesta,
E7 Am

186
ya está bueno de platos, ahora eres la reina.
Dm G7 C
Bebe, tu, de mi copa como en los tiempos idos,
E7 Am
yo bebo de la tuya, amigos? ... amigos.
CORO:
Dm Am
Dejame bailar contigo la alegria linda del ultimo vals,
E7 Am - A7
amor, amor,
Dm Am
vamos a vivir, unidos en este minuto nuestra eternidad,
E7 Am
amor, amor, amor.

RECITADO: Dm
Am
Sabes una cosa?, hay algo que no entiendo
E7 Am
yo queria una fiesta con los hijos y los nietos,
Dm Am E7
Y vino tanta gente que tuve que buscarte, como vez, escondido,
Am Dm Am
para poder hablarte. Pienso que pasaria si alguien me sorprendiera
E7 Am Dm
contandote en secreto, mis siniestras ideas, Una casa, ¿Cual Casa?
Am E7 Am
Si esto es una barraca, comparada con otras, que si se llaman casa.
Dm G7 C E7
La casa nueva, Claro desde hoy la casa de los viejos, para bailar a solas
Am
Un Valsecito Añejo.

CORO:
Dm Am
Dejame bailar contigo la alegria linda del ultimo vals,
E7 Am - A7
amor, amor,
Dm Am
vamos a vivir, unidos en este minuto nuestra eternidad,
E7 Am
amor, amor, amor.

RECITADO: Dm
Am E7
Mira, todos se han ido, hemos quedado solos, estoy casi borracho, parece,
Am Dm
¿lo entiendes? solos, solos, Sin hijos, lo ves?, se van
Am E7 Am
se van felices, tu te pones mas vieja, yo mas viejo y mas triste.
Dm - G7 C
En Fin, bailemos?, sólo Dios entiende lo que Pasa, despues de todo,
E7 Am
o nada, tenemos nueva casa.

CORO:
Dm Am
Dejame bailar contigo la alegria linda del ultimo vals,
E7 Am - A7
amor, amor,
Dm Am

187
vamos a vivir, unidos en este minuto nuestra eternidad,
E7 Am
amor, amor, amor.

E7 Am
U2
Elevation
INTRO:
E-A (7x)
B-A
B A E B
High, higher than the sun, you shoot me from a gun
A E B
I need you to elevate me here
A E B
At the corner of your lips, as the order of your hips
A
Eclipse
E B
You elevate my soul
A E B
I\'ve got no self-control, been living like a mole
A E
Now going down excavation
B A E B A
I and I in the sky, you make me feel like I can fly so high
E
Elevation
E-A (3x)
B A
Elevation

(do c.p. B-A-E)


A star lit up like a cigar
Strung out like a guitar
Maybe you can educate my mind
Explain all these controls
Can\'t sing but I\'ve got soul
The goal is elevation

(do c.p. B-A-E)


A mole digging in a hole
Digging up my soul now going down excavation
I and I in the sky
You make me feel like I can fly
So high
Elevation

E-A (7x)

B A E
Elevation

Love, lift me up out of these blues


Won\'t you tell me something true
I believe in you

(do c.p. B-A-E)


A mole digging in a hole
Digging up my soul now going down excavation
I and I in the sky
You make me feel like I can fly
So high
Elevation

|--------------------------------------------------------|
|--------------------------------------------------------|
|----9999-8888-7777---9999-8888-7777---9999-8888-7777----|
|----9999-8888-7777---9999-8888-7777---9999-8888-7777----|
|----7777-6666-5555---7777-6666-5555---7777-6666-5555----|
|--------------------------------------------------------|
|----------------------------------------|
|----------------------------------------|
|---9999-8888-7777-6666-5555-4444--------|

188
|---9999-8888-7777-6666-5555-4444-7777---|
|---7777-6666-5555-4444-3333-2222-7777---|
|---------------------------------5555---|
E-A (7x)
B A E
Elevation
Violeta Parra Solm La7 Rem
Cuando miro al fondo de tus ojos claros.
Gracias A La Vida
Rem La Rem
Gracias a la vida que me ha dado tanto
INTRO: (solo si les gusta) Do Fa
Rem - Do - La7 - Rem Me ha dado la risa y me ha dado el llanto,
La7 Rem
Rem La Así yo distingo dicha de quebranto
Gracias a la Vida La7 Rem
Rem Los dos materiales que forman mi canto
Que me ha dado tanto Solm La7 Rem
Do Y el canto de ustedes que es el mismo canto
me dio dos luceros Solm La7 Rem
Fa Y el canto de todos que es mi propio canto.
que cuando los abro
La7
perfecto distingo Rem Solm La7 Rem
Rem Gracias a la viiiiiiiidaaaaaaaaaa
lo negro del blanco
La7
y en el alto cielo
Rem
su fondo estrellado
Solm
y en las multitudes
La7 Rem
el hombre que yo amo

Rem La Rem
Gracias a la vida que me ha dado tanto
Do Fa
Me ha dado el sonido y el abedecedario
La7 Rem
Con él las palabras que pienso y declaro
La7 Rem
Madre amigo hermano y luz alumbrando,
Solm La7 Rem
La ruta del alma del que estoy amando.

Rem La Rem
Gracias a la vida que me ha dado tanto
Do Fa
Me ha dado la marcha de mis pies cansados
La7 Rem
Con ellos anduve ciudades y charcos,
La7 Rem
Playas y desiertos montañas y llanos
Solm La7 Rem
Y la casa tuya, tu calle y tu patio.

Rem La Rem
Gracias a la vida que me ha dado tanto

189
Do Fa
Me dio el corazón que agita su marco
La7 Rem
Cuando miro el fruto del cerebro humano,
La7 Rem
Cuando miro al bueno tan lejos del malo,
White Lion C G
then the new world begins
When The Children Cry
C BM
what have we become
G D E BM
little child just look what we have done
E BM C G
dry your crying eyes all that we destroyed
C G E D
how can I explain you must build again
E D C BM
the fear you feel inside no more presidents
G D E BM
cause you were born and all the wars will end
E BM C G
into this evil world one united world
C G E D
where mas is killing man Under god
E D
and no one knows just why E BM
C BM when the children cry
what have we become C G
E BM let them know we tried
just look what we have done E BM
C G when the children fight
all that we destroyed C D
E D let them know it ain’t right
you must build again
C BM
E BM when the children pray
when the children cry C BM
C G let them know the way
let them know we tried E BM
E BM cause when the children sing
cause when the children sing C D
C G then the new world begins
then the new world begins

G D (stick)
little child D G BmC
E BM what have we become just look what we have done
you must show the way G E/B D
C G all that weve destroyed you must build again
to a better day D G BmC
E D no more presidents and all the wars will end
for all the young G E/B D
G D one united world under god
cause you were born
E BM
for all the world to see
C G E/B Bm C G
that we all can live when the children cry, let em know we tried
E D E/B Bm C D
with love and peace when the children fight, let em know it aint right
E/B Bm C G
C BM when the children pray, let em know the way
no more presidents E/B Bm C D
E BM cuz when the children sing, then the new world begins
and all the wars will end
C G
one united world
E D
under god

190
E BM
when the children cry
C G
let them know we tried
E BM
cause when the children sing