Está en la página 1de 2

ELEFANTE – EL ABANDONADO

INTRO
(x5)
e|---------------------|--------------|
B|---------------------|--------------|
G|---------------------|--------------|
D|---------------------|--------------|
A|---1---3---1---3---1-|---1---3---1--|
E|-3---3---3---3---3---|-3---3---3----|

e|---8/10----15---10\8-6----------------------------|
B|-----------------------8\6-----6---6/8------------|
G|-----------------------------7---7-------7\5-3-0--|
D|--------------------------------------------------|
A|--------------------------------------------------|
E|--------------------------------------------------|

VERSO 1
Gm

Cm F Gm
Anoche pude ver cuando te fuiste, solito me quede y no dije nada
Cm F Gm
tal vez esta canción te suene triste, pero me esta llevando la chingada
Cm F Gm
y lo que me digas de memoria me lo se, tus mentiras no me serviran de nada
Cm F D# D7
te lo perdiste, ojalá te vaya bien, yo me voy por donde vine se que no me perderé no, no!

CORO
Gm Cm F A# D7
Abandonao, un exiliado, de tu boca, de tus manos, de tu corazón
Gm Cm F
sin rumbo fijo voy de la mano de mis sueños vagabundos
A# D# D7 Gm
y me importa poco que me diga el mundo ¡el abandonao!

VERSO 2
Gm Cm F Gm
El tiempo es el doctor de los dolidos para sanar las penas que te embriagan
D7 Gm Cm F Gm
yo siempre me las curo con tequila oyendo a Jose Alfredo y a Sabina,
Gm Cm F Gm
y no pasa nada se que no me morire, como dice la canción ¡Así es la vida!
Cm F D# D7
mirame a los ojos aunque sea la última vez, solo vine a despedirme no te vine a detener no, no!

CORO
Gm Cm F A# D7
Abandonao, un exiliado, de tu boca, de tus manos, de tu corazón
Gm Cm F
sin rumbo fijo voy de la mano de mis sueños vagabundos
A# D# D7 Gm
y me importa poco que me diga el mundo ¡el abandonao!
(Gm) (Cm) (F) (Gm)
Así estoy yo sin ti fallaste corazón, y ya lo pasado pasado, te doy una canción
Gm Cm F D# D7
de que manera te olvido esta tarde vi llover besame besame mucho toquenme ¡La que se fue!

Am Dm G C D7
SOLO
e|-/12br--12-12-12-12-12\10-10-8-10br-|-5-5-5p3--3-3-------------------------------------|
B|------------------------------------|--------------5--5-5-3----------------------------|
G|------------------------------------|------------------------5-5p4-5-2---2---2--2/5-2--|
D|------------------------------------|----------------------------------5---5-----------|
A|------------------------------------|--------------------------------------------------|
E|------------------------------------|--------------------------------------------------|
Am

Abandonado...
e|------3-5---5br-----5-8br--3-5br----|-12-12-12-12-12-12--8-8-8p7-7-7-7\5-5-5-5\3-3-3-3---------|
B|--3/5-----5-------5-----------------|--------------------------------------------------5-3-----|
G|------------------------------------|------------------------------------------------------5-2-|
D|------------------------------------|----------------------------------------------------------|
A|------------------------------------|----------------------------------------------------------|
E|------------------------------------|----------------------------------------------------------|

Am Dm G C D7
abandonao un exiliado de tu boca de tus manos de tu corazón
Am Dm G
sin rumbo fijo voy de la mano de mis sueños vagabundos
C F D7 Am
y me importa poco que me diga el mundo ¡que la abandonao!