Está en la página 1de 5

Saved by TabnPlay.

com, Your First Online Guitar SolutionBand Name: joao boscoSong


Name: jade--------------7-7--5-8-8-7-7-5-5-5--3-2-3-5-
2--------------------------------------------------5-
5-----------------------------------3--------------787------------------3-3--
--------5-5-----------------------------------3--------------787------------------
3-3----------5-5-----------------------------------3--------------
787------------------3-3---------787------------------3-3-------6 --------5-
5-----------------------------------3--------------787------------------3-3--
--------5-5-----------------------------------3--------------787------------------
3-3----------5-5-----------------------------------3--------------
787------------------3-3----------------7-7--5-8-8-7-7-5-5-5--3-2-3-5-
2--------------------------------------------------5-
5-----------------------------------3--------------787------------------3-3--
---------------------7-7--5-8-8-7-7-5-5-5--3-2-3-5-
2------------------------------------------------------------------7-7--5-8-8-7-7-
5-5-5--3-2-3-5-2-----------------------------------------------7-7--5-8-8-7-7-5-5-
5--3-2-3-5-2--------------------------------------------------------7-7--5-8-8-7-7-
5-5-5--3-2-3-5-2--------------------------------------------------------7-7--5-8-8-
7-7-5-5-5--3-2-3-5-2--------------------------------------------------------7-7--5-
8-8-7-7-5-5-5--3-2-3-5-2-------------------------------------------------------
787------------------3-3----------------7-7--5-8-8-7-7-5-5-5--3-2-3-5-
2------------------------------------------Saved : Thu Feb 11 23:31:03 GMT-0300
2016 ——————————————————————————————————————————
----------------------------------------------------------3-4-
3------------------------------------------------------------------------------3-
3-------3-------5-5-4-----4----------------4-4-
-----------------------------------------------------------------------------------
----------------3-4-
3----------------------------------------------------------------------
--------------7-7--5-8-8-7-7-5-5-5--3-2-3-5-
2--------------------------------------------5-5-3-------------5-3-5-------7-6 ---
6 ---5----4-4-2--------454-------4----------------
-------------------------------------------------8-6 -5-6 -----------------
10-------------
--------------------------------------------------------------------------
7------------——————————————————————————————————————————Saved : Thu Feb 11 23:31:03
GMT-0300 2016 ——————————————————————————————————————————--------------7-7--5-8-8-7-
7-5-5-5--3-2-3-5-2--------------------------------------------------5-
5-----------------------------------3--------------787------------------3-3--
--------5-5-----------------------------------3--------------5-
5-----------------------------------3--------------787------------------3-3--
-------------------------------------------------8-6 -5-6 -----------------
10--------------------------------------------------------------8-6 -5-
6 -----------------10-------------------------3-4-
3------------------------------------------------------------------------------5-
5-----------------------------------3--------------787------------------3-3--
-------------------------------------------------8-6 -5-6 -----------------
10-----------------------------------------------------7---6 -------------------7-6 -
5---7---5------------------------------------------------------8-6 -5-
6 -----------------10-------------——————————————————————————————————————————
-------------------------------------------------8-6 -5-6 -----------------
10---------------------------7-7--5-8-8-7-7-5-5-5--3-2-3-5-
2--------------------------------------------------5-
5-----------------------------------3--------------787------------------3-3-----3-
3---------------------------------------------------5-8-----10-9-8-7---7--5-3-----6
-------------------------------------------------8-6 -5-6 -----------------
10--------------------------------------------------------------8-6 -5-
6 -----------------10-------------------------3-4-
3------------------------------------------------------------------------------3-
3-------3-------5-5-4-----4----------------4-4-2-------------------------------5-5-
3-------------5-3-5-------7-6 ---6 ---5----4-4-2--------454-------4----------------
----------------------------------------7---6 -------------------7-6 -5---7---5-----
--------------------------------------------------------------------------
7------------——————————————————————————————————————————
-----------------------------------------------------------------------------------
------------------7-7--5-8-8-7-7-5-5-5--3-2-3-5-
2--------------------------------------------------5-
5-----------------------------------3--------------787------------------3-3-----3-
3---------------------------------------------------5-8-----10-9-8-7---7--5-3-----6
-------------------------------------------------8-6 -5-6 -----------------
10-------------
-----------------------------------------------------------------------------------
----------------3-4-
3------------------------------------------------------------------------------3-
3-------3-------5-5-4-----4----------------4-4-2-------------------------------5-5-
3-------------5-3-5-------7-6 ---6 ---5----4-4-2--------454-------4----------------
----------------------------------------7---6 -------------------7-6 -5---7---5-----
--------------------------------------------------------------------------
7------------——————————————————————————————————————————
-----------------------------------------------------------------------------------
------------------7-7--5-8-8-7-7-5-5-5--3-2-3-5-
2--------------------------------------------------5-
5-----------------------------------3--------------787------------------3-3-----3-
3---------------------------------------------------5-8-----10-9-8-7---7--5-3-----6
-------------------------------------------------8-6 -5-6 -----------------
10-------------
-----------------------------------------------------------------------------------
----------------3-4-
3------------------------------------------------------------------------------3-
3-------3-------5-5-4-----4----------------4-4-2-------------------------------5-5-
3-------------5-3-5-------7-6 ---6 ---5----4-4-2--------454-------4----------------
----------------------------------------7---6 -------------------7-6 -5---7---5-----
--------------------------------------------------------------------------
7------------——————————————————————————————————————————
-----------------------------------------------------------------------------------
------------------7-7--5-8-8-7-7-5-5-5--3-2-3-5-
2--------------------------------------------------5-
5-----------------------------------3--------------787------------------3-3-----3-
3---------------------------------------------------5-8-----10-9-8-7---7--5-3-----6
-------------------------------------------------8-6 -5-6 -----------------
10-------------
-----------------------------------------------------------------------------------
----------------3-4-
3------------------------------------------------------------------------------3-
3-------3-------5-5-4-----4----------------4-4-2-------------------------------5-5-
3-------------5-3-5-------7-6 ---6 ---5----4-4-2--------454-------4----------------
----------------------------------------7---6 -------------------7-6 -5---7---5-----
--------------------------------------------------------------------------
7------------——————————————————————————————————————————
-----------------------------------------------------------------------------------
------------------7-7--5-8-8-7-7-5-5-5--3-2-3-5-
2--------------------------------------------------5-
5-----------------------------------3--------------787------------------3-3-----3-
3---------------------------------------------------5-8-----10-9-8-7---7--5-3-----6
-------------------------------------------------8-6 -5-6 -----------------
10-------------
-----------------------------------------------------------------------------------
----------------3-4-
3------------------------------------------------------------------------------3-
3-------3-------5-5-4-----4----------------4-4-2-------------------------------5-5-
3-------------5-3-5-------7-6 ---6 ---5----4-4-2--------454-------4----------------
----------------------------------------7---6 -------------------7-6 -5---7---5-----
--------------------------------------------------------------------------
7------------——————————————————————————————————————————
-----------------------------------------------------------------------------------
------------------7-7--5-8-8-7-7-5-5-5--3-2-3-5-
2--------------------------------------------------5-
5-----------------------------------3--------------787------------------3-3-----3-
3---------------------------------------------------5-8-----10-9-8-7---7--5-3-----6
-------------------------------------------------8-6 -5-6 -----------------
10-------------
-----------------------------------------------------------------------------------
----------------3-4-
3------------------------------------------------------------------------------3-
3-------3-------5-5-4-----4----------------4-4-2-------------------------------5-5-
3-------------5-3-5-------7-6 ---6 ---5----4-4-2--------454-------4----------------
----------------------------------------7---6 -------------------7-6 -5---7---5-----
--------------------------------------------------------------------------
7------------——————————————————————————————————————————
-----------------------------------------------------------------------------------
------------------7-7--5-8-8-7-7-5-5-5--3-2-3-5-
2--------------------------------------------------5-
5-----------------------------------3--------------787------------------3-3-----3-
3---------------------------------------------------5-8-----10-9-8-7---7--5-3-----6
-------------------------------------------------8-6 -5-6 -------------
----10-------------
-----------------------------------------------------------------------------------
----------------3-4-
3------------------------------------------------------------------------------3-
3-------3-------5-5-4-----4----------------4-4-2-------------------------------5-5-
3-------------5-3-5-------7-6 ---6 ---5----4-4-2--------454-------4----------------
----------------------------------------7---6 -------------------7-6 -5---7---5-----
--------------------------------------------------------------------------
7------------——————————————————————————————————————————
-----------------------------------------------------------------------------------
------------------7-7--5-8-8-7-7-5-5-5--3-2-3-5-
2--------------------------------------------------5-
5-----------------------------------3--------------787------------------3-3-----3-
3---------------------------------------------------5-8-----10-9-8-7---7--5-3-----6
-------------------------------------------------8-6 -5-6 -----------------
10-------------
-----------------------------------------------------------------------------------
----------------3-4-
3------------------------------------------------------------------------------3-
3-------3-------5-5-4-----4----------------4-4-2-------------------------------5-5-
3-------------5-3-5-------7-6 ---6 ---5----4-4-2--------454-------4----------------
----------------------------------------7---6 -------------------7-6 -5---7---5-----
--------------------------------------------------------------------------
7------------——————————————————————————————————————————
-----------------------------------------------------------------------------------
------------------7-7--5-8-8-7-7-5-5-5--3-2-3-5-
2--------------------------------------------------5-
5-----------------------------------3--------------787------------------3-3-----3-
3---------------------------------------------------5-8-----10-9-8-7---7--5-3-----6
-------------------------------------------------8-6 -5-6 -----------------
10-------------
-----------------------------------------------------------------------------------
----------------3-4-
3------------------------------------------------------------------------------3-
3-------3-------5-5-4-----4----------------4-4-2-------------------------------5-5-
3-------------5-3-5-------7-6 ---6 ---5----4-4-2--------454-------4----------------
----------------------------------------7---6 -------------------7-6 -5---7---5-----
--------------------------------------------------------------------------
7------------——————————————————————————————————————————
-----------------------------------------------------------------------------------
------------------7-7--5-8-8-7-7-5-5-5--3-2-3-5-
2--------------------------------------------------5-
5-----------------------------------3--------------787------------------3-3-----3-
3---------------------------------------------------5-8-----10-9-8-7---7--5-3-----6
-------------------------------------------------8-6 -5-6 -----------------
10-------------
-----------------------------------------------------------------------------------
----------------3-4-
3------------------------------------------------------------------------------3-
3-------3-------5-5-4-----4----------------4-4-2-------------------------------5-5-
3-------------5-3-5-------7-6 ---6 ---5----4-4-2--------454-------4----------------
----------------------------------------7---6 -------------------7-6 -5---7---5-----
--------------------------------------------------------------------------
7------------——————————————————————————————————————————
-----------------------------------------------------------------------------------
------------------7-7--5-8-8-7-7-5-5-5--3-2-3-5-
2--------------------------------------------------------7-7--5-8-8-7-7-5-5-5--3-2-
3-5-2---------------------------------------------3-
3---------------------------------------------------5-8-----10-9-8-7---7--5-3-----6
-------------------------------------------------8-6 -5-6 -----------------
10-------------
-----------------------------------------------------------------------------------
----------------3-4-
3------------------------------------------------------------------------------3-
3-------3-------5-5-4-----4----------------4-4-2-------------------------------5-5-
3-------------5-3-5-------7-6 ---6 ---5----4-4-2--------454-------4----------------
----------------------------------------7---6 -------------------7-6 -5---7---5-----
--------------------------------------------------------------------------
7------------0----——————————————————————————————————————————
-----------------------------------------------------------------------------------
------------------7-7--5-8-8-7-7-5-5-5--3-2-3-5-
2--------------------------------------------------5-
5-----------------------------------3--------------787------------------3-3-----3-
3---------------------------------------------------5-8-----10-9-8-7---7--5-3-----6
-------------------------------------------------8-6 -5-6 -----------------1---------
-----------------------------------------------------------------------------------
----------------3-4-
3------------------------------------------------------------------------------3-
3-------3-------5-5-4-----4----------------4-4-2-------------------------------5-5-
3-------------5-3-5-------7-6 ---6 ---5----4-4-2--------454-------4----------------
----------------------------------------7---6 -------------------7-6 -5---7---5-----
-----------------------------------------------------------------------------------
----0----——————————————————————————————————————————
--------------------------------------------------------------------3-4-
3------------------------------------------------------------------------------3-
3-------3-------5-5-4-----4----------------4-4-2-------------------------------5-5-
3-------------5-3-5-------7-6 ---6 ---5----4-4-2--------454-------4----------------
----------------------------------------7---6 -------------------7-6 -5---7---5-----
--------------------------------------------------------------------------
7------------
-----------------------------------------------------------------------------------
----------------3-4-
3------------------------------------------------------------------------------3-
3-------3-------5-5-4-----4----------------4-4-2-------------------------------5-5-
3-------------5-3-5-------7-6 ---6 ---5----4-4-2--------454-------4----------------
----------------------------------------7---6 -------------------7-6 -5---7---5-----
--------------------------------------------------------------------------
7------------
——————————————————————————————————————————-----------------------------------------
---------------------------------------------------------3-4-
3------------------------------------------------------------------------------3-
3-------3-------5-5-4-----4----------------4-4-2-------------------------------5-5-
3-------------5-3-5-------7-6 ---6 ---5----4-4-2--------454-------4----------------
----------------------------------------7---6 -------------------7-6 -5---7---5-----
--------------------------------------------------------------------------
7--------------------------------------------------------------------------------
------------3-4-
3------------------------------------------------------------------------------3-
3-------3-------5-5-4-----4----------------4-4-2-------------------------------5-5-
3-------------5-3-5-------7-6 ---6 ---5----4-4-2--------454-------4----------------
----------------------------------------7---6 -------------------7-6 -5---7---5-----
--------------------------------------------------------------------------
7------------