Está en la página 1de 1

NOCHE ANTOLOGIA

INTRO

E--5--7--9----12--10--9--7-----|
B------------------------------|
G------------------------------|
D------------------------------|
A------------------------------|
E--5--7--9----12--10--9--7-----|

E--4--5--7----9--7--5--4-----2-4-5|
B---------------------------------|
G---------------------------------|
D---------------------------------|
A---------------------------------|
E--4--5--7----9--7--5--4-----2-4-5|
Se repite y luego

E--2-5—10/12-12-12-12-------------|
B---------------------------------|
G---------------------------------|
D---------------------------------|
A---------------------------------|
E--2-5—10/12-12-12-12-------------|
QUENA
SOL-FA#-MI-FA#-SOL-LA-SI-LA-DO-SI-LA
FA#-MI-RE-MI-FA#-LA-RE-DO-SI-LA
MI-MI-MI-FA#-SOL-LA/SI-LA-SOL-FA#-MI-RE
RE/MI-RE-DO-DO-DO-DO-RE-MI-SOL-MI-MI-MI-MI-FA#-SOL-SI
MI/FA-MI-FA-SOL-LA-DO-SI-DO-LA-FA#
RE/MI-RE-DO-DO-DO-DO-RE-MI-SOL-MI-MI-MI-MI-FA#-SOL-SI
MI/FA-MI-FA-SOL-LA-DO-SI-DO-RE-FA#

LA DO#m
Noche, tu que comprendes
SIm LA MI
mi tristeza y también mi soledad. Aha...
LA DO#m
Dile a las estrellas
SIm
que no es tiempo
LA
que mi amada se marchó
DO#m
y un recuerdo me dejó
SIm FA#m MiM
y hoy no puedo olvidarla

DO#m
que mi amada se marchó
Sim
y un recuerdo me dejó
SIm FA#m MiM
y hoy no puedo olvidarla

LA
como la mañana
DO#m
que al mirarme sonreiste
SIm FA#m
y mi vida se alegró

INTERMEDIO QUENA O ZAMPOÑA


SOL-LA-SI-RE-DO-SI-FA#-RE-SI-FA#
MI-FA#-MI-FA#-SOL-FA#-SOL-FA#-SOL-LA-SI-LA
SOL-LA-SI-RE-DO-SI-FA#-RE-SI-FA#
SI-LA-SOL-MI-SOL-MI-SOL-LA/SI-LA