Está en la página 1de 3

Zoe

Nada (TAB)
AUTOR: Leon Larregui
ALBUM: Reptilectric (2008)
zoe0385
--Nada--

Intro: Dm-Gm x2
Bass Int Vers D G C A
G|-------------------------|--|------------------------------|
D|-----------55-55-55-55-5-|X2|-------55-55-5----------------|
A|-55-55-55-5--------------|--|55-55-5-------33-33-3-00-00-0-|
E|-------------------------|--|------------------------------|
Vers
Dm Gm
Transfusión, mi magia pura para el corazón
C A
Rimel de miel pa corregir la tristeza Riff1
Dm(Riff 1) Gm e|---------|
Tattoo mental para marcarse la imaginación B|-5p6-6-5-|
C A G|---------|
Tragos de luz, para alegrarse la vida
Solo 1 Dm G C A
e|-----------------------|
B|-----------------------|
G|---------------0-------|
D|-2-0-0p2-0-2-0---------|
A|-----------------3-3-0-|
E|-----------------------|
Dm (Riff2) Gm Riff2
Televisión, para borrarse de la transmisión e|-10-6-|-6-8-|-8-5-|
C A B|------|-----|-----|
Revólver sexual, para la ruleta rusa

PreCoro Bass
A|----3-1---3-|
E|-3-1---3-1--|
Pre Coro
Gm F C A#
Y no se tú, ni qué dirás pero no hay nada mucho qué pensar
Gm F C
La oscuridad me acecha incrédula

CORO 1
(En el coro la guitarra hace esto) Dm Gm C A
e|---5----|--|------|--|Pero yo e|---5--|--|---6--|--|------|--|-----|--|
B|--6-6---|X5|--6-8-|X7| Hago B|--6-6-|X4|--8-8-|X4|----8-|X2|---5-|X2|
G|-7------|--|-7----|--| Esto G|-7----|--|-7----|--|---9--|--|--6--|--|
D|--------|--|------|--| Suena D|------|--|------|--|-10---|--|-7---|--|
A|--------|--|------|--| Bien A|------|--|------|--|------|--|-----|--|

Bass Coro D G C A
G|------------------------------------------------|
D|-----------3-7-55-55-55-5-----------------------|
A|-55-55-55-5---------------33-33-33-3-44-44-44-4-|
E|------------------------------------------------|
Dm Gm
Nada que pueda perder, Nada que no pueda hacer,
C A
Algo que te alivie, Algo que me cure
Dm Gm
Nada que pueda perder, Nada que no pueda hacer,
C A
Algo que te alivie, Algo que me cure

Verso
Dm Gm
Transfusión, mi magia pura para el corazón
C A
Rimel de miel pa corregir la tristeza
Dm (Riff2) Gm
Televisión, para borrarse de la transmisión
C A
Revólver sexual, para la ruleta rusa

PreCoro Bass
D|------------|-5/10-10-10-10-10-10-|
A|----3-1---3-|---------------------|
E|-3-1---3-1--|---------------------|
Gm F C A#
Y no se tú, ni qué dirás pero no hay nada mucho qué pensar
Gm F C
La oscuridad me acecha incrédula

Coro2
(En el segundo coro se hace esto)
Dm Gm C A
e|-----------------|-----------------|--------------|-------------|
B|-8-10-8-10-8--10-|-8-10-8-10-8--11-|8-10-8-10-8---|8-9-8-9-8----|
G|------------10---|------------10---|-----------10-|---------10--|
D|-----------------|-----------------|--------------|-------------|
(Y se escucha una guitarrita k hace al final de Dm y Gm)
G|------|
D|----7-|
A|-5-8--|
E|------|
(Pero mi propio arreglo es)
Dm Gm C-A
e|-------------|----------6-|-----------|
B|-5-6-5-6-5---|5-6-5-6-5---|5-6-5-6-5--|
G|----------7--|---------7--|---------7-|
D|-----------7-|------------|-----------|
A|-------------|------------|-----------|
Dm Gm
Nada que pueda perder, Nada que no pueda hacer,
C A
Algo que te alivie, Algo que me cure
Dm Gm
Nada que pueda perder, Nada que no pueda hacer,
C A
Algo que te alivie, Algo que me cure

Solo 3 Gm-Dm-x2
e|------------|-----------------|
B|-5p6-6------|-----------------| X2
G|-------5-7h-|-5p7-7-7-5p7-7-7-|
D|------------|-----------------|

Y después se toca Gm C Dm hasta el final


Solo final
e|-----------------------||--------------------------------|
B|-11h-11h-5h-10h-10h-3h-||5/11-11-11-5-5-5-10-10-10-3-3-3-|
G|-----------------------||--------------------------------|

Y el Teclado toca
Verso- D-D-G-A PreCoro- G-F#-C-A#-G-F-C Coro- D-D-C-C#
Y sus riffs son G-E-F-D -DFA-

Este fichero es trabajo propio de su transcriptor y representa su interpretación personal de la canción. El material contenido en esta página es para
exclusivo uso privado, por lo que se prohibe su reproducción o retransmisión, así como su uso para fines comerciales.