Está en la página 1de 13

PUÑO DE TIERRA

RE
vagando voy porla vida
LA7
nomas recorriendo el mundo

si quieren que se los diga


RE
yo soy un alma sin dueño
LA7
a mi no pme importa nada
RE
pa' mi la vida es un sueño

RE
yo tomo cuando yo quiero
LA7
no miento soy muy sincero

y soy coo las gaviotas


RE
volando de puerto en puerto
LA7
yo se que la vida es corta
RE
al fin que tambien la debo

coro******

RE7 SOL
el dia que yo me muera
LA7 RE
no voy a llevarme nada
LA7
hay que darle gusto al gusto
RE
la vida pronto se acaba

RE7 RE
lo que paso en este nundo
LA7 RE
nomas el recuerdo queda
LA7
ya muerto voy a llevarme
RE
nomas un puño de tierra
A
Una cruz de madera,
E7 A
de la más corriente. e|--------------------------------------
B|--------------------------------------
G|--------------------------------------
D|-0--------0-0-----------0-0-----------
A|---4-2-0------4-4-2-2-0-----4-4-2-2-0-
E|--------------------------------------
A
Eso es lo que quiero
E7 C#7 D7 D#7 E7
cuando yo me muera. e|-4-4-5-7--7-7--9-10-10--9-7-5-5-|---0-0---0-0---0-0---0---0--
B|-5-5-7-9--9-9-10-12-12-10-9-7-7-|---2-2---3-3---4-4---5---5--
G|--------------------------------|---4-4---5-5---6-6---7---7--
D|--------------------------------|---3-3---4-4---5-5---6---6--
A|--------------------------------|-4-----5-----6-----7--------
E|--------------------------------|-----------------------7----

E7
Yo no quiero lujos

que valgan millones

lo único que quiero es

que canten canciones

que sea una gran fiesta


A
la muerte de un pobre. e|-------------------------------------------------------------------------------------
B|-------------------------------------------------------------------------------------
G|-------------------------------------------------------------------------------------
D|--7-6-4--2-4-2-0---0-----------0---2-0-4-2-4-2-0---0-----0-0-----------0-0-----------
A|-----------------4---4-2-0-4-2---4---------------4---4-2-----4-4-2-2-0-----4-4-2-2-0-
E|-------------------------------------------------------------------------------------

A7 D
Yo no quiero llantos

yo no quiero penas

no quiero tristesas,
E7 C#7 D7 D#7 E7
yo no quero nada. e|-4-4-5-7--7-7--9-10-10--9-7-5-5-|---0-0---0-0---0-0---0---0--
B|-5-5-7-9--9-9-10-12-12-10-9-7-7-|---2-2---3-3---4-4---5---5--
G|--------------------------------|---4-4---5-5---6-6---7---7--
D|--------------------------------|---3-3---4-4---5-5---6---6--
A|--------------------------------|-4-----5-----6-----7--------
E|--------------------------------|-----------------------7----
Lo único que quiero es

alla en mi velorio

una serenata
A
por la madrugada.

REQUINTO:

E
e|--7--7-7-5-5-4--4--5-5-4---------|-----7--7-7-5-4--4-2-0-----------|
B|--9--9-9-7-7-5--5-7-7--5-2-3-2-0-|--0--9--9-9-7-5--5-3-2-2h3-2-2-0-|
G|---------------------------------|---------------------------------|
D|---------------------------------|---------------------------------|
A|---------------------------------|---------------------------------|
E|---------------------------------|---------------------------------|

e|----------------------------|----------------------------------------|
B|----------------------------|----------------------------------------|
G|--2--2-1--------------------|--------------------------2-------------|
D|----------4--2--0-----------|---2------2------2------2---4-2-4-2-----|
A|-------------------4--2--0--|-4---0--4---0--4---0--4-------------4-0-|
E|----------------------------|----------------------------------------|

A
Cuando ya mi cuerpo este
E7 A
junto a la tumba. e|--------------------------------------
B|--------------------------------------
G|--------------------------------------
D|-0--------0-0-----------0-0-----------
A|---4-2-0------4-4-2-2-0-----4-4-2-2-0-
E|--------------------------------------
A
Lo único que pido
E7
como despedida. e|-4-4-5-7--7-7--9-10-10--9-7-5-5-|---0-0---0-0---0-0---0---0--
B|-5-5-7-9--9-9-10-12-12-10-9-7-7-|---2-2---3-3---4-4---5---5--
G|--------------------------------|---4-4---5-5---6-6---7---7--
D|--------------------------------|---3-3---4-4---5-5---6---6--
A|--------------------------------|-4-----5-----6-----7--------
E|--------------------------------|-----------------------7----
E7
Que en las cuatro esquinas

de mi sepultura,

como agua bendita


A
que rieguen tequila.
A7 D
Yo no quiero llantos

yo no quiero penas

no quiero tristesas,
E7 C#7 D7 D#7 E7
yo no quero nada. e|-4-4-5-7--7-7--9-10-10--9-7-5-5-|---0-0---0-0---0-0---0---0--
B|-5-5-7-9--9-9-10-12-12-10-9-7-7-|---2-2---3-3---4-4---5---5--
G|--------------------------------|---4-4---5-5---6-6---7---7--
D|--------------------------------|---3-3---4-4---5-5---6---6--
A|--------------------------------|-4-----5-----6-----7--------
E|--------------------------------|-----------------------7----

Lo único que quiero es

alla en mi velorio

una serenata
A E7 - A
por la madrugada.
VIRGEN RANCHERA
G D7 G D7
A tí virgencita , mi Guadalupana,
yo quiero ofrecerte un canto valiente,
G
que México entero te brinda sonriente.
G D7 G D7
Yo quiero decirte, lo que tu ya sabes,

que México te ama, que nunca esta triste,


G G7
porque de nombrarte, el alma se inflama.
C G
Tu nombre es arrullo, y el mundo lo sabe,
D7
Eres nuestro orgullo, y México es tuyo,
G
Tu guardas la llave.

(Coro
C G
Que viva la Reina, de los Mexicanos,
D7
la que con sus manos, sembró rosas bellas,
G
y puso en el cielo, millares de estrellas.)

G D7 G D7
Yo se que en el cielo, escuchas mi canto,
y se que con celo, nos cubre tu manto,
G
Virgencita chula, eres un encanto.
G D7 G D7
Por patria nos diste, este lindo suelo,
y lo bendijiste, por que era tu anhelo,
G
tener un santuario, cerquita del cielo.

Coro
C G
Mi Virgen Ranchera, mi Virgen morena,
D7
eres nuestra dueña, México es tu tierra y
G
tu su bandera.

Coro
EN TU DIA
Intro:

A D A E A
E ---------------5--7-9-12-10---10-9-9-10--9-5-7-9--7-4-5--4-5-7-4-5-
B ------5-7-9-10-----------------------------------------------------
G --6-7--------------------------------------------------------------

A E A
Celebremos con gusto señores
E A
este día de placer tan dichoso
D
que en tu santo te encuentres gustoso
E A
y tranquilo tu fiel corazón

E A
Vive vive feliz en el mundo
E A
sin que nadie perturbe tu mente
D
te pondremos un laurel en tu frente
E A
unas conchas y perlas del mar

A D A E A
E ---------------5--7-9-12-10---10-9-9-10--9-5-7-9--7-4-5--4-5-7-4-5-
B ------5-7-9-10-----------------------------------------------------
G --6-7--------------------------------------------------------------

E A
Dios bendiga este dia aventuroso
E A
y bendiga la prenda que adoro
D
hoy los angeles cantan en coro
E A
por los años que vas a cumplir

E A
Las estrellas se visten de gala
E A
y la luna se llena de encanto
D
al saber que hoy es día de tu santo
E A
Dios bendiga este día de placer

A D A E A
E ---------------5--7-9-12-10---10-9-9-10--9-5-7-9--7-4-5--4-5-7-4-5-
B ------5-7-9-10-----------------------------------------------------
G --6-7--------------------------------------------------------------

E A
Solamente un recuerdo ha quedado
E A
de la infancia que al fin ya pasó
D
celebremos este dia tan dichoso
E A
tus amigos parientes y yo

E A
Celebremos con gusto señores
E A
este día de placer tan dichoso
D
que en tu santo te encuentres gustoso
E A
y tranquilo tu fiel corazón
MI VIRGEN BELLA

D Ao Em A7
ERES LA ESPERANZA QUE A NOSOTROS
Em A7 D
EN FORMA DE MUJER MANDO EL SEÑOR
D Ao Em A7
LE PIDES CON PACIENCIA QUE SU ENOJO
Em A7 D
NO CAIGA SOBRE EL MUNDO EL PECADOR.

D Ao Em A7
TAN PURO ES TU AMOR Y TAN HERMOSO
Em A7 D
QUE HUMILDES NOS POSTRAMOS A TUS PIES,
D Ao Em A7
NO ME ATREVO A MIRARTE A LOS OJOS,
Em A7 D
DE INDIGNO QUE ME SIENTO ANTE TU SER.

Ao Em A7 Em A7 D
COMO QUISIERA, AY; MI VIRGEN BELLA,
Ao Em A7 G
QUE MI CARIÑO SE CONVIRTIERA EN UNA OFRENDA
A D Ao Em A7
Y ASI ENTREGARTELO, REINA DEL CIELO,
Em A7 D
LA MAS AMABLE
Ao Em G A (****)
COMO LUCERO MARAVILLOSO QUE SIEMPRE ESTA,
D
CUIDANDONOS.

D Ao Em A7
HOY ANTE TU ALTAR Y EN TU PRESENCIA,
Em A7 D
TE QUIERO REGALAR MI CORAZON
Ao Em A7
VA LLENO DE ORACIONES Y PROMESAS
Em A7 D
PARA QUE SE LO ENTREGUES AL SEÑOR.

D Ao Em A7
TU ERES EL ORGULLO DE MI TIERRA,
Em A7 D
PUES MEXICO ESCOGISTE PARA HACER,
Ao Em A7
LA CASA DONDE EL POBRE LE PUDIERAS,
Em A7 D
TU AMOR Y BENDICIONES CONCEDER.
A MI MANERA
C Em
EL FINAL SE ACERCA YA
Gm A7
LO ESPERARE SERENAMENTE
Dm Dm7
YA VEZ, YO HE SIDO ASI
G7 C
TE LO DIRE SINCERAMENTE.

C C7
VIVI, LA INMENSIDAD
F Fm
SIN CONOCER JAMAS FRONTERAS
C G7
JUSGUE SIN DESCANSAR
Dm7 C
A MI MANERA.

C Em
JAMAS VIVI UN AMOR
Gm A7
QUE PARA MI, FUERA IMPORTANTE
Dm Dm7
CORTE, SOLO LA FLOR
G7 C
Y LO MEJOR DE CADA INSTANTE.

C C7
VIAJE,Y DISFRUTE
F Fm
NO SE SI MAS, QUE OTRO CUALQUIERA
C G7
SI BIEN, TODO ESO FUE
Dm7 C
A MI MANERA.

C C7
TAL VEZ LLORE O TAL VEZ REI
F
TAL VEZ GANE O TAL VEZ PERDI
Dm7 G7
AHORA SE QUE FUI FELIZ
Em Am
QUE SI LLORE, TAMBIEN AME
Dm7 G7
PUEDO SEGUIR HASTA EL FINAL
Dm7 C
A MI MANERA.
C Em
QUIZAS,TAMBIEN DUDE
Gm A7
CUANDO YO MAS ME DIVERTIA
Dm Dm7
QUIZAS, YO DESPRECIE
G7 C
AQUELLO QUE YO, NO COMPRENDIA.

C C7
HOY SE, QUE FIRME FUI
F Fm
Y QUE AFRONTE SER COMO ERA
C G7
Y ASI LOGRE VIVIR
Dm7 C
A MI MANERA.

C
PORQUE SABRAS
C7 F
QUE UN HOMBRE EN TI CONOCERAS

POR ESO VIVIR


Dm7
NO HAY PORQUE HABLAR
G7
NI QUE DECIR
Em Am
NI RECORDAR, NI QUE FINGIR
Dm7 G7
PUEDO SEGUIR, HASTA EL FINAL
Dm7 C
A MI MANERA.
HOMBRE DE NEGRO

INTRO: E7 A D E7 A
A
En Guadalajara Perla de Occidente
E7
Para ser exacto Plaza los Mariachis

Un hombre de negro se bajo de un carro,


A A7
Quería que a su casa fueran a tocarle con un buen tequila
D E7 A
Y buen mariachi, quiero que se alegren hoy mis familiares,

A
Les di el domicilio teléfono y datos
E7
el dijo me siguen pa ´que no se pierdan

Estoy muy contento de estar en mi patria


A
Quiero que esta noche se haga una gran fiesta
A7 D
Como dice el dicho ya muy conocido
E7 A
Hay que darme gusto que mundo ahí te quedas

...E7 A

(El estribillo se toca mas lento, bueno,


si ya escucharon la cancion no hay problema)

E7 A
Entrando a mi casa me pierda de vista
E7 A
Ustedes comienzan un puño de tierra
A7 D
cuando se termine le siguen con otra
E7 A
mi México lindo y la cruz de madera…..

INTER: E7 A

Nomas no chilles mi chuy!!!


WENDOLYNE

Intro:

E -----------------------------------------------------------------
A -----------------------------------------------------------------
D -----------------------------------------------------------------
G -----------------------------------------------------------------
B -3-------------------------------------------3-1-3--------------3
E ---0--1--3--5--6--6--5--3--3--1--0---0--1--0-------5-6-5-3-1-0---

Dm Gm C F
Tan dentro de mí conservo el calor que me hace sentir,
Dm Gm Dm
conservo tu amor tan dentro de mí que aún puedo vivir
A7 Dm
muriendo de amor muriendo de ti.

D7 Gm C F
Como buscan las olas la orilla del mar, como busca un marino
Dm Gm
su puerto y su hogar yo he buscado en mi alma
A7 Dm A7 Dm
queriéndote hallar y tan solo encontre mi soledad.

D7 Gm C
A pesar de estar lejos tan lejos de mí
F Dm
A pesar de otros besos quizas wendolyne
Gm A7 Dm
aún recuerdes el tiempo de aquel nuestro amor aún te acuerdes de mí.

**Mismo circulo en el poema**

D7 Gm C
Wendolyne, se quiebra mi voz al nombrarte
F
mi mirar se nubla al recordarte
Dm
y pensar que en dos manos
Gm
un día se unieron dos almas
A Dm *(Un solo rasgueo hacia abajo)
y de aquello de ayer, ya nada quedó.

D7 Gm C
Aún recuerdo aquel ayer cuando estabas junto a mí
F Dm
tú me hablabas del amor yo podía soreir
Gm Dm A7 Dm
aun recuerdo aquel amor y ahora te alejas de mí.

D7 Gm C
Le he pedido al silencio que me hable de ti
F Dm
he vagado en las noches queriendote oir
Gm A7
y al sonido del viento le he oído decir
Dm
tu nombre wendolyne.

También podría gustarte