Está en la página 1de 3

4 Del Altiplano

Estrella de la noche

intro (d,A7,d,D7,g,d,A7,d)

A:
d A7 d
Estrella de la noche, tu, serás,
D7 g
la compañera fiel, de mi, canción,
d
que vagas por la noche, enchida de romántica ansiedad,
A7 d
bajo la dolorosa, ternura del amor. ( bis )

B:
A7
Tu que por su ventana puedes ver
d
acercate a la reja y dile que,
A7
mi corazón suspira por su amor
d D7
que yo me estoy muriendo de dolor,
g
dile que una palabra nada más,
d
que salga de sus labios podrá ser,
A7 d
la dicha de mi vida, la felicidad. ( bis )

A:

Recuerdos del ayer, que fue, pasión,


el suave titilar, que hay en tí,
pero al no sentir, tu raro amor de ayer,
estrella solitaria llorarás, de amor. ( bis )

B:
Dame la tierna luz, que tiene tu mirar,
es como el titilar, de una estrella de amor,
y en éxtasis profundo de pasión,
mis versos tristes yo te brindaré,
y en tu lozada frente posaré la estrella
de este gran amor. ( bis )
E---------------------------------------------------
B--------------3-2--3-2-/-------------3-2--3-3------
G---------0-2---------------------0-2---------------
D-/-0-0-2-3--------------/-0-0-2-3------------------
A---------------------------------------------------
E---------------------------------------------------

E---------------------------------------------------
B---------------------------------------------------
G-0-2-3-2-0-3-3------0-2-3-2-0-3-2------------------
D---------------------------------------------------
A---------------------------------------------------
E---------------------------------------------------

E---------------------------------------------------
B---------------------------------------------------
G-0-2-3-2-0-3-----2-0-----------2-------------------
D-------------2-2-----3-2-0-2-3---------------------
A---------------------------------------------------
E---------------------------------------------------

RASGUEO;

| | | |
| | | | | |
| | | |
| | | | | |
| |
OJOS AZULES.

Ritmo: Huayño 2/8


Tono: La menor

Introducción

Do+ La- La-


Mi ||--0-0-0-3-0---0-|---0----|-----0-0-0--|---------|--0-----0---||
SI ||------------3---|---1----|-1-3--------|-3--0--1-|--1-----1---||
SOL||.---------------|---0----|------------|---------|--2-----2--.||
RE ||.---------------|---2----|------------|---------|--2-----2--.||
LA ||----------------|---3----|------------|---------|--0-----0---||
MI ||----------------|---0----|------------|---------|--0-----0---||

Do+ La- La-


Mi ||----------------|---0----|-----0-0-0--|---------|--0-----0---||
SI ||--1-1-1-----1-3-|---1----|-1-3--------|-3--0--1-|--1-----1---||
SOL||.-------2-0-----|---0----|------------|---------|--2-----2--.||
RE ||.---------------|---2----|------------|---------|--2-----2--.||
LA ||----------------|---3----|------------|---------|--0-----0---||
MI ||----------------|---0----|------------|---------|--0-----0---||

LA- DO+ Rasgueo: 2/8


||: Ojos azules no llores
MI7 LA- | | A | | A
no llores ni te enamores :|| | | | | | |
X | | X | |
| | | | | |
LA- DO+ V V | V V |
||: Llorarás cuando me vaya
MI7 LA- D P P D P P
Cuando remedio ya no haya :|| 1 2 1 2

Símbolos:

LA- DO+ D = Dedos


||: tu me juraste quererme P = Pulgar
MI7 LA-
quererme toda la vida :||

LA- DO+
||: No pasaron dos tres dias
MI7 LA-
Tu te alejas y me dejas :||