Está en la página 1de 3

14/3/2018 Duo Ayacucho, Contigo yo aprendí: Tablatura para Guitarra

Duo Ayacucho
Contigo yo aprendí (TAB)
AUTOR: Reservado
ALBUM: desconocido
daya0053
Hola A todos , Mi nombre es Melvyn y es mi primera transcripcion
en Lacuerda.net --- espero que les guste ----
Bueno aqui esta la introduccion en tablatura de la cancion
" CONTIGO APRENDI " segun la interpretacion del Duo Ayacucho
(escuchar la cancion, para orientarse mejor)

INTRO :

__
( X 7 )
_ 1|--------------------)-----------------------
_)2|--------------------)-----------------------
3|--------------------)---------------1-2-----
_ 4|--------2--0h2h0----)-------2-0-0-2---------
_)5|--0--3--------------)--0-3------------------
6|-----------------0--)-----------------------
__/
__
( X 7 ) ( X 4 ) ( X 2 )
_ 1|-------------)--8-7h8--4-5--)--12-10h12---------
_)2|--5-3h5------)--------------)-----------9-10----
3|--------1-2--)--------------)-------------------
_ 4|-------------)--------------)-------------------
_)5|-------------)--------------)-------------------
6|-------------)--------------)-------------------
__/
__
muchas veces
_ 1|------------------------------------------------------------
_)2|----------7-10-------------7-10-10.......-------------------
3|--9-7-7-9----------9-7-7-9----------------------------------
_ 4|------------------------------------------------------------
_)5|------------------------------------------------------------
6|------------------------------------------------------------
__/

HUAYNO :
__

_ 1|------------------------------------------------------------
_)2|------------------------------------------------------------
3|------------------------------------------------------------
_ 4|------------------0h2--0h2-2-2-2-2S5-0----------0-2---------
_)5|----0-0-0-0-0-3-3----------------------0--0-2-3-------------
6|--0---------------------------------------------------------
__/
__

_ 1|------------------------------------------------------------
_)2|------------------------------------------------------------
3|------------------------------------------------------------
_ 4|------------------0h2--0h2-2-2-2-0h2h0-----------0-2-0------
_)5|----0-0-0-0-0-3-3----------------------0-0-0-2-3-------3----
6|--0---------------------------------------------------------
__/
__

_ 1|------------------------------------------------------------
_)2|------------------------------------------------------------
3|------------------------------------------------------------
_ 4|--0h2-2-2-2-2-0h2h0---0------------0h2-0--------------------
_)5|--------------------3-----0-0--3-3-------0-3----------------
6|------------------------0-----------------------------------
__/
__

http://acordes.lacuerda.net/duo_ayacucho/contigo_yo_aprendi-3.shtml 1/3
14/3/2018 Duo Ayacucho, Contigo yo aprendí: Tablatura para Guitarra
_ 1|------------------------------------------------------------
_)2|------------------------------------------------------------
3|------------------------------------------------------------
_ 4|--0h2-2-2-2-2-0h2h0---0-----------0h2-0----------0-2-0------
_)5|--------------------3-----0-0-3-3-------0--0-2-3-------3----
6|------------------------0-----------------------------------
__/
__

_ 1|------------------------------------------------------------
_)2|------------------------------------------------------------
3|------------------------------------------------------------
_ 4|--0h2-2-2-2-2-0h2h0---0------------0h2-0--------------------
_)5|--------------------3-----0-0--3-3-------0-3----------------
6|------------------------0-----------------------------------
__/
__

_ 1|------------------------------------------------------------
_)2|------------------------------------------------------------
3|------------------------------------------------------------
_ 4|--0h2-2-2-2-2-0h2h0---0------------0h2-0--------------------
_)5|--------------------3-----0-0--3-3-------0-0----------------
6|------------------------0-----------------------------------
__/
__
muchas veces
_ 1|------------------------------------------------------------
_)2|--5-3h5-------5-3h5-----------------------------------------
3|--------1-2---------1-2----------1-2-----------1-2-2....----
_ 4|-------------------------2-0-0-2-------2-0-0-2--------------
_)5|------------------------------------------------------------
6|------------------------------------------------------------
__/

Am C E Am
Contigo yo aprendí a querer sin condición [bis]
C G C F G C
/no hay barrera en el amor me dijiste un día
G C E Am
pero si embargo hoy te olvidaste ya de mi / (Bis)

__
muchas veces
_ 1|------------------------------------------------------------
_)2|--5-3h5-------5-3h5-----------------------------------------
3|--------1-2---------1-2----------1-2-----------1-2-2....----
_ 4|-------------------------2-0-0-2-------2-0-0-2--------------
_)5|------------------------------------------------------------
6|------------------------------------------------------------
__/

Am C E Am
Ayacuhana de mi amor yo no se lo que paso
C E Am
huamanguinita de mi amor yo no se lo que paso
C G C F G C
Despues de tanta ilusión lo nuestro ya se acabó
G C E Am
Y de aquel inmenso amor recuerdos solo quedan

FUGA :

C G C F G C
/No se que cosa me has hecho no se que cosa yo tendré
G C E Am
de día te voy mirando de noche te voy soñando./ [bis]

__

_ 1|-----------------CUALQUIER CONSULTA ESCRIBIR A -------------


http://acordes.lacuerda.net/duo_ayacucho/contigo_yo_aprendi-3.shtml 2/3
14/3/2018 Duo Ayacucho, Contigo yo aprendí: Tablatura para Guitarra
_)2|-----Loco_cypress@hotmail.com ------------------------------
3|-----Montreal- Canada------------------------!!!PERU!!!!----
_ 4|------------------------------------------------------------
_)5|----------------------- DJ MeL " El SanTiTo "---------------
6|------------------------------------------------------------
__/

Este fichero es trabajo propio de su transcriptor y representa su interpretación personal de la canción. El material contenido en esta página es para
exclusivo uso privado, por lo que se prohibe su reproducción o retransmisión, así como su uso para fines comerciales.

http://acordes.lacuerda.net/duo_ayacucho/contigo_yo_aprendi-3.shtml 3/3