Está en la página 1de 4

Antologia

Aljate(TAB)
*********************************************************************

1)-9--9--7----------9-10-|-12/10-12-11-11/12--|
2)-10-10-9-10-----10-----|--------------------|
3)---------11---11-------|--------------------|
4)-----------------------|--------------------|
5)-----------------------|--------------------|
6)-----------------------|--------------------|...(I)

1)-9--9--7---------9-10-|-10-12-14-12^14-|-16-16-14/12-12-----|
2)-10-10-9-10----10-----|----------------|---------------15v--|
3)---------11--11-------|----------------|--------------------|
4)----------------------|----------------|--------------------|
5)----------------------|----------------|--------------------|
6)----------------------|----------------|--------------------|...(II)

1)-------12-14----|---------------|------------------|
2)--15-15-----12v-|-12-12^14-10---|-10-10^9----------|
3)--------- ------|------------11-|--------11-11/13--|
4)----------------|---------------|------------------|
5)----------------|---------------|------------------|
6)----------------|---------------|------------------|...(III)
1)-16-16-14/12-12----|------12-14----|---------------|
2)---------------15v-|-15-15-----12v-|-12-12^14-10---|
3)-------------------|---------------|------------11-|
4)-------------------|---------------|---------------|
5)-------------------|---------------|---------------|
6)-------------------|---------------|---------------|...(IV)

LA MI FA#m
Aljate por el amor que yo te daba
LA MI FA#m
Y lleva ya aquel pual de tu mal pago
RE LA
Se llevara todo mi amor
DO#m SIm FA#m
Mi juventud mi vida entera
RE LA
Te llevaras todo mi amor
DO#m SIm FA#m
Mi juventud mi vida entera

LA MI FA#m
Pido perdn por este ser que esta muriendo
LA MI FA#m
Mi corazn se niega amar a otro cario
RE LA
Te llevare como una luz
DO#m SIm FA#m
Prendida a m es mi martirio
RE LA
Te llevare como una luz
DO#m SIm FA#m MI
Prendida a m es mi tormento

ACA ENTRA LA QUENA Y SIGUE ...(I)(II)(III)(IV) y despues esto :

1)-9--9--7--9-|-9--9--9--7-|-7-9--7-5----|
2)------------|------------|----------7v-|
3)------------|------------|-------------|
4)-11-11-9-11-|-11-11-11-9-|-9-11-9-7----|
5)------------|------------|----------9v-|
6)------------|------------|-------------|
1)-9--9--7--9-|-9--12-9--7-|-7-9--7-5----|
2)------------|------------|----------7v-|
3)------------|------------|-------------|
4)-11-11-9-11-|-11-14-11-9-|-9-11-9-7----|
5)------------|------------|----------9v-|
6)------------|------------|-------------|

LA MI FA#m
Perdname si te ame con gran delirio
LA MI FA#m
Es que el amor solo una ves toco mi alma
RE LA
Te llevare dentro de m
DO#m SIm FA#m
En alma y piel con gran ternura
RE LA
Te llevare dentro de m
DO#m SIm FA#m
En alma y piel con gran ternura

LA MI FA#m
Pido perdn por este ser que esta muriendo
LA MI FA#m
Mi corazn se niega amar a otro cario
RE LA
Te llevare como una luz
DO#m SIm FA#m
Prendida a m es mi martirio
RE LA
Te llevare como una luz
DO#m SIm FA#m
Prendida a m es mi martirio

FA#m MI FA#m
Aljate por el amor que yo te daba.

Antologia
Amor de arena
A E Bm F#m E
Hoy tengo pena en el alma, T te iras, y jams volvers a mi
A E Bm F#m E
Ya no me quedan ms lgrimas, Con su adis ella se la llevo
A E Bm F#m E
Hoy tengo pena en el alma, T te iras, y jams volvers a mi
A E Bm F#m E
Ya no me quedan ms lgrimas, Con su adis ella se la llevo

A D A
Ni las olas han borrado, Del arena nuestro amor
A D Bm E
Ese corazn tatuado, En aquel rbol solo esta

A E Bm F#m E
Como hare, para poder olvidarte, Como hare, para poder vivir sin ti
A E Bm F#m E
Sin tu amor nada tiene sentido, Corazn ya no me hagas sufrir A.s.

A D Bm E - A D Bm E - D E D E E D E A - A E Bm F#m E - A E Bm F#m E A
Musica

A E Bm F#m E
Hoy tengo pena en el alma, T te iras, y jams volvers a mi
A E Bm F#m E
Ya no me quedan ms lgrimas, Con su adis ella se la llevo
A E Bm F#m E
Hoy tengo pena en el alma, T te iras, y jams volvers a mi

A D A
Ni las olas han borrado, Del arena nuestro amor
A D Bm E
Ese corazn tatuado, En aquel rbol solo esta
A E Bm F#m E
Como hare, para poder olvidarte, Como hare, para poder vivir sin ti
A E Bm F#m E
Sin tu amor nada tiene sentido, Corazn ya no me hagas sufrir A.s.

A D Bm E - A D Bm E - A D Bm E - A D Bm E ...
Musica

Antologia
Hoy me ir

A# F D# A# F x2 G
G F D#
Mi pobre corazn, que tuyo fue
A#
hoy ya no es ms
Cm G
mucho lo hiciste sufrir
F
no quiere saber
D G
ni un poquito de ti . [1]

G F D#
Si culpable soy yo, me enamore
A#
sin comprender
Cm G
ciego de pasin no vi
F
que esconda tu piel
D G
el amargo desdn .. [2]

A# F
Hoy me ir, me alejare
D# A# F
y nunca mas volver eh he
Cm G
mi corazn esta herido
F D
no quiere saber
G
ni un poquito de ti .. x 2 [coro]

A# F D# A# F x2

Repite (1) , (coro)

A# F D# F x2

Repite (Coro) x2

Cm G F
mi corazn esta herido, no quiere saber,
A# F D#
ni un poquito de ti, ni un poquito de ti, ni un poquito de ti

D# G

Antologia
Te Extrao
TE EXTRAO TANTO - ANTOLOGIA

SIm
RE LA SIm
RE LA SIm
SOL RE LA (bis)
SIm LA SOL LA SIm
RE LA
Te extrao tanto... t lo sabes...
SIm RE LA
y tu palabras... me hacen falta...
MIm SIm
cierro los ojos... siento tu aroma...
RE LA SIm
que triste es vivir... sin ti
MIm SIm
toco tus manos... y an te respiro...
RE LA SIm
que triste es vivir... sin ti

LA SOL (bis)

SIm RE LA
Est cayendo... una lgrima...
SIm RE LA
de tu recuerdo... de nuestras vidas...
MIm SIm
hoy te extrao... y aun te espero...
RE LA SIm
que triste es vivir... sin ti
MIm SIm
hay un vaco... aqu en mi alma...
RE LA SIm
que triste es vivir... sin ti

RE LA SIm (bis)
SOL RE LA (bis)
SIm LA SOL LA SIm

RE LA
Extrao tanto... t mirada...
SIm RE LA
que en mi dejabas... ternura y tanto amor...
MIm SIm
este amor que... me hizo fuerte...
RE LA SIm
aunque es difcil... sin ti
MIm SIm
por la tardes... an te espero...
RE LA SIm
que triste es vivir... sin ti...

LA MIm SOL LA SIm

---------------------------------
---------------------------------

Intereses relacionados