Está en la página 1de 4

Esta es la correccin de mi transcripcin de esta cancin,

que me di cuenta que tena pequeos errores, ahi les incluyo


el solo y un riff que tiene, y el ritmo es sumamente fcil,
el de balada, que es abajo, arriba, abajo, abajo, abajo...

Intro:

e|---3-3-3--1-0-----|---------------|----------------------------|
B|-0------------3-1-|---1-3-3/5-3-1-|-------1-1--------1-1-------|
G|------------------|-2-------------|-0-0/2--------2-0-------0---|
D|------------------|---------------|--------------------------3-|
A|------------------|---------------|----------------------------|
E|------------------|---------------|----------------------------|

E|-------0-1-------|
B|-1-1-3-----1/3-1-|
G|-----------------|
D|-----------------|
A|-----------------|
E|-----------------|

C G Am
Perdona si te estoy llamando en este momento
Em F
pero me hacia falta escuchar de nuevo
C G (Riff 1)
aunque sea un instante tu respiracin

E|-----------0-1-3---------
B|-----0-1-3---------------
G|-0-2--------------------
D|----------------------
A|----------------------
E|----------------------

C G
Disculpa se que estoy violando
Am
nuestro juramento
Em F
se que estas con alguien, en este momento
C G
pero hay algo urgente que decirte hoy

Pre-Coro:

Am Em F C G
Estoy muriendo, muriendo por verte (me estoy ahogando...)
Am Em F G
agonizando muy lento y muy fuerte

Coro:

C G Am
Vida, devulveme mis fantasas
Em F
mis ganas de vivir la vida
C Dm G
devulveme el aire...
C G Am
Cario mo, sin ti yo me siento vaco
Em F
las tardes son un laberinto
C Dm
y las noches me saben
G C
a puro dolor...

e|-0--3-3-3-1-0-----|--------------|------------------|---------0-3-1-0-------|
B|--------------3-1-|--1-3-3/5-3-1-|-----3-3--1-0-----|----0-1-3-------1^3^1--|
G|------------------|-2------------|-0-2----------2-0-|0-2--------------------|
D|------------------|--------------|------------------|-----------------------|
A|------------------|--------------|------------------|-----------------------|
E|------------------|--------------|------------------|-----------------------|

C G Am
Quisiera decirte que hoy estoy de maravilla
Em F
que no me ha afectado lo de tu partida
C G
pero con un dedo no se tapa el sol

Pre-Coro

Coro

Solo:

E|-----3--5-7-7/8-8-7-7-5-------------------------5-7-|
B|-1/3--------------------6/8-8-6-5--------5-6-8------|
G|----------------------------------7-5--7------------|
D|----------------------------------------------------|
A|----------------------------------------------------|
E|----------------------------------------------------|

Despus en el coro se sube el tono D-A-Bm-F#m-G-D-Em-A


Xxxxxxxxxxxxxxxxxxxxxxxxxxxxxxxxxxxxxxxxxxxxxxxxxxxxxxxxxxxxxxxxxxxxxxxxxxx
esta es una correccion a las demas tablaturas,
se escucha genial, las otras no estan mal
pero en la introduccion
hace falta tocar los bajos, y uno que
otro detalle en los acordes

intro

e|--0---------3-3-3-1-0------|----------------------|
B|-----1----------------3-1--|------1--3-3/5--3--1--|
G|--------0------------------|----2-----------------|
D|---------------------------|----------------------|
A|--3---------3--------------|--3-------------------|
E|---------------------------|----------------------|

e|------------------------------|-----------------------|--0---|
B|--------1-1--------1-1--------|------2-3-3/5-3h5-1h3--|--1---|
G|--0-0h2--------2-0-------2-0--|----1------------------|--0---|
D|------------------------------|-----------------------|--2---|
A|--0--0---------0---------0----|--0--------------------|--3---|
E|------------------------------|-----------------------|--0---|

C G Am
Perdona si te estoy llamando en este momento
Em F
pero me hacia falta escuchar de nuevo
C G
aunque sea un instante tu respiracin

C G
Disculpa se que estoy violando
Am
nuestro juramento
Em F
se que estas con alguien, en este momento
C G
pero hay algo urgente que decirte hoy

Pre-Coro

Am Em F G
Estoy muriendo, muriendo por verte
Am Em F G
agonizando muy lento y muy fuerte

Coro

C G Am
Vida, devulveme mis fantasas
Em F
mis ganas de vivir la vida
C Dm7 G
devulveme el aire...
C G Am
Cario mo, sin ti yo me siento vaco
Em F
las tardes son un laberinto
C Dm7
y las noches me saben
G C
a puro dolor...

C G Am
Quisiera decirte que hoy estoy de maravilla
Em F
que no me ha afectado lo de tu partida
C G
pero con un dedo no se tapa el sol

Pre-Coro

Am Em F G
Estoy muriendo, muriendo por verte
Am Em F G
agonizando muy lento y muy fuerte

Coro:

C G Am
Vida, devulveme mis fantasas
Em F
mis ganas de vivir la vida
C Dm7 G
devulveme el aire...
C G Am
Cario mo, sin ti yo me siento vaco
Em F
las tardes son un laberinto
C Dm7
y las noches me saben
G C
a puro dolor...

sube el tono en lo que sigue del coro a:


D-A-Bm-F#m-G-D-Em7-A

se escucha mejor poniendo


el capoteaste en el segundo espacio
y tocando los acordes sin modificar