Está en la página 1de 7

Meghan Trainor - All About That Bass

Refro:

A
E|------------------------------------------|
B|------------------------------------------|
G|------------------------------------------|
D|----x-------2-x-------x-x---x-------------|
A|-0--x--3h4----x--4-0--x-x---x-------------|
E|------------------------------------------|

Bm7
E|------------------------------------------|
B|------------------------------------------|
G|------------------------------------------|
D|----x-------4-x-------x-x---x-------------|
A|-2--x--4/5----x--5-2--x-x---x-------------|
E|------------------------------------------|

E
E|------------------------------------------|
B|------------------------------------------|
G|------------------------------------------|
D|------------------------------------------|
A|----x-------2-x-------x-x---x-------------|
E|-0--x--3/4----x--4-0--x-x---x-------------|

A
E|------------------------------------------|
B|------------------------------------------|
G|------------------------------------------|
D|----x-------2-x---------------------------|
A|-0--x--3h4----x--4-0----------------------|
E|------------------------------------------|

A
Because you know I'm all about that bass

'Bout that bass, no treble


Bm7
I'm all 'bout that bass, 'bout that

Bass, no treble
E
I'm all 'bout that bass, 'bout that
Bass, no treble
A
I'm all 'bout that bass, 'bout that bass

Primeira Parte:

A
E|------------------------------------------|
B|-2----------2------2----------2-----------|
G|-2----------2------2----------2-----------|
D|----x-------2-x-------x-------2-x---------|
A|-0--x--3h4----x--4-0--x--3h4----x--4------|
E|------------------------------------------|

1 Variao

A
E|------------------------------------------|
B|-------------------2----------2-----------|
G|-------------------2----------2-----------|
D|-2--------------------x-------2-x---------|
A|-0-----------------0--x--3h4----x--4------|
E|------------------------------------------|

Bm7
E|------------------------------------------|
B|-3----------3------3----------3-----------|
G|-2----------2------2----------2-----------|
D|----x-------4-x-------x-------4-x---------|
A|-2--x--4/5----x--5-2--x--4/5----x--5------|
E|------------------------------------------|

2 Variao

Bm7
E|------------------------------------------|
B|-3----------3------3----------3-----------|
G|-2----------2------2----------2-----------|
D|----x-------4-x-------x-------4-----------|
A|-2--x--4/5----x--5-2--x--4/5--------------|
E|------------------------------------------|

E
E|------------------------------------------|
B|-0----------0------0----------0-----------|
G|-1----------1------1----------1-----------|
D|------------------------------------------|
A|----x-------2-x-------x-------2-x---------|
E|-0--x--3/4----x--4-0--x--3/4----x--4------|

A
E|------------------------------------------|
B|------------------------------------------|
G|------------------------------------------|
D|----x-------2-x-------x-------------------|
A|-0--x--3h4----x--4-0--x--3h4--------------|
E|------------------------------0--4--------|

E|------------------------------------------|
B|----x--x-----x----------------------------|
G|----x--x-----x----------------------------|
D|-x--x--x--x--x--x-------------------------|
A|-x--------x-----x-------------------------|
E|-x--------x-----x-------------------------|

A
Yeah it's pretty clear

I ain't no size two


Bm7
But I can shake it, shake it like

I'm supposed to do
E
'Cause I got that boom boom that all

The boys chase


A
All the right junk

In all the right places

I see the magazines working

That photoshop
Bm7
We know that shit ain't real

C'mon now, make it stop


E
If you got beauty beauty just

Raise 'em up
'Cause every inch of you is perfect

From the bottom to the top

Segunda Parte:

A
E|-0--0-------0-0----0--0-------0-0---------|
B|-2--2-------2-2----2--2-------2-2---------|
G|-2--2-------2-2----2--2-------2-2---------|
D|----x-------2-x-------x-------2-x---------|
A|-0--x--3h4----x--4-0--x--3h4----x--4------|
E|------------------------------------------|

Bm7
E|-2--2-------2-2----2--2-------2-2---------|
B|-3--3-------3-3----3--3-------3-3---------|
G|-2--2-------2-2----2--2-------2-2---------|
D|----x-------4-x-------x-------4-x---------|
A|-2--x--4/5----x--5-2--x--4/5----x--5------|
E|------------------------------------------|

E
E|-0--0-------0-0----0--0-------0-0---------|
B|-0--0-------0-0----0--0-------0-0---------|
G|-1--1-------1-1----1--1-------1-1---------|
D|------------------------------------------|
A|----x-------2-x-------x-------2-x---------|
E|-0--x--3/4----x--4-0--x--3/4----x--4------|

A
E|-0--0-------0-0----0----------------------|
B|-2--2-------2-2----2----------------------|
G|-2--2-------2-2----2----------------------|
D|----x-------2-x---------------------------|
A|-0--x--3h4----x--4-0----------------------|
E|------------------------------------------|

A
Yeah, my momma, she told me
Bm7
Don't worry about your size
E
She says, Boys like a little more booty
A
To hold at night

You know I won't be no stick figure


Bm7
Silicone barbie doll
E
So, if that's what's you're into
A
Then go ahead and move along

Repete o Refro:

A
Because you know I'm all about that bass

'Bout that bass, no treble


Bm7
I'm all 'bout that bass, 'bout that

Bass, no treble
E
I'm all 'bout that bass, 'bout that

Bass, no treble
A
I'm all 'bout that bass, 'bout that bass

Repete a Primeira Parte:

I'm bringing booty back

Go ahead and tell them


Bm7
Skinny bitches "hey"

No, I'm just playing I know you


E
Think you're fat

But I'm here to tell you

Every inch of you is perfect from

The bottom to the top

Repete a Segunda Parte:

A
Yeah, my momma she told me
Bm7
Don't worry about your size
E
She says, Boys like a little more
Booty to hold at night
A
You know I won't be no stick figure
Bm7
Silicone barbie doll
A
So, if that's what's you're into

Then go ahead and move along

Refro:

A
Because you know I'm all about that bass

'Bout that bass, no treble


Bm7
I'm all 'bout that bass, 'bout that

Bass, no treble
E
I'm all 'bout that bass, 'bout that

Bass, no treble

I'm all 'bout that bass, 'bout that bass

A
Because you know I'm all about that bass

'Bout that bass, no treble


Bm7
I'm all 'bout that bass, 'bout that

Bass, no treble
E
I'm all 'bout that bass, 'bout that

Bass, no treble

I'm all 'bout that bass, 'bout that bass

A
Because you know I'm all about that bass

'Bout that bass, no treble


Bm7
I'm all 'bout that bass, 'bout that

Bass, no treble
E
I'm all 'bout that bass, 'bout that

Bass, no treble
I'm all 'bout that bass, 'bout that bass

A Bm7 E A

Solo:

E|-7/9--9--9--9---7-7-7--5-5-5--4-4--2~-----------------|
B|-9/10-10-10-10--9-9-9--7-7-7--5-5--3~-----------------|
G|------------------------------------------------------|
D|------------------------------------------------------|
A|------------------------------------------------------|
E|------------------------------------------------------|

E|-2/7-7-7-7--5-5-5--4-4-4--2-2--0----------------------|
B|-3/9-9-9-9--7-7-7--5-5-5--3-3--2----------------------|
G|------------------------------------------------------|
D|------------------------------------------------------|
A|------------------------------------------------------|
E|------------------------------------------------------|

----------------- Acordes -----------------


E = 0 2 2 1 0 0
A = X 0 P2 2 2 0
Bm7 = X 2 4 2 3 2

Intereses relacionados