Está en la página 1de 50

Sui Generis

Cancin para mi Muerte

**********************************************************************

G
Hubo un tiempo en que fui hermoso
Fmaj7
y fui libre de verdad
C
guardaba todos mis sueos
Dsus D
en castillos de cristal.
G
Poco a poco fu creciendo
Fmaj7
y mis fbulas de amor
C
se fueron desvaneciendo
Dsus D
como pompas de jabn.

Bm Em
Te encontrar una maana
Bm Em
dentro de mi habitacin
C Dsus D
y preparars la cama
G
para dos.

TARAREO: G Em Am D

INTER: G C G C
G
Es larga la carretera
Fmaj7
cuando uno mira atrs
C
vas cruzando las fronteras
Dsus D
sin darte cuenta quizs.
G
Tmate del pasamanos
Fmaj7
porque antes de llegar
C
se aferraron mil ancianos
Dsus D
pero se fueron igual.

[ESTRIBILLO]

INTER: G Fmaj7 C Dsus D

G
Quisiera saber tu nombre,
Fmaj7
tu lugar, tu direccin,
C
y si te han puesto telfono
Dsus D
tambin tu numeracin.
G
Te suplico que me avises
Fmaj7
si me vienes a buscar
C
no es porque te tenga miedo
Dsus D
solo me quiero arreglar.

[ESTRIBILLO]

FINAL: G Fmaj7 C Dsus D

**********************************************************************

Charly Garca
Chipi chipi (unplugged)

[G Em Am7 D]

G
Yo nunca vi New York
Em
no se lo que es Pars
Am7
vivo bajo la tierra,
D
vivo dentro de mi.
G
Yo no tengo un espejo
Em
...........(no canta)
Am7
la lgrima me habla
D
est dentro de mi.

Dm G7
Yo solo tengo esta pobre antena,
C Cm
que me transmite lo que decs,
G D/F# C
esta cancin, mi ilusin, mis penas
D G
y este souvenir.

Yo subo la escalera. Uh!


yo cumplo una misin
la lgrima me dice
que yo tampoco soy.
La hija de un amor,
la hija del dolor,
yo soy,
quien no debe ser.

Dm G7
.....................(no canta)
C Cm
no digas nada vete de aqu
G D/F# C
porque yo voy donde nunca estoy,
D G
donde nunca fui.

C
Tmalo con calma,
Em
la cosa es as,

C
ya se hace de noche,
D
me tengo que ir.

Am7 Eb G Em C Am7 D D4 D

G
Chipi, chipi
chipi, chipi
Em
bom bom
C
bom bom
D
bom bom
G Em Am D
Chipi, chipi

Yo no te pienso esperar por siempre


porque el mercurio lo tengo aqu
no digas malas palabras, nene
ya vete de aqu.

[G Em Am D] x 2

Esta cancin durar por siempre,


por eso mismo yo la hice as
una cancin sin amor, sin dolor
la cancin sin fin. (again)
Dm G7
Esta cancin durar por siempre,
C Cm
Como los discos,
G D/F# C
Mmmmmmmmmmmm...
D G D-G
La cancin sin fin.

**********************************************************************

Author/Artist: Coldplay
Title: Yellow
Album: Parachutes
Transcribed by: Brian Beglin
Email: jayhawk_182@hotmail.com
Acordes:
Asus2 Asus4 E Esus4 D D (con e al aire)

INTRO:

VERSE 1:
A Asus4
Look at the stars,
E
Look how they shine for you,
Esus4 D
And everything you do.
De
Yeah, they were all yellow.

VERSE 2:
A Asus4
I came along,
E
I wrote a song for you,
Esus4 D
And all the things you do.
De
And it was called yellow.

VERSE 3:
A Asus4 E
So then I took my turn,
Esus4 D
Oh, what a thing to've done.
De
And it was all yellow.

CHORUS 1:
(Riff 1)
D Fm E
You're skin, oh yeah, you're skin and bones
(Riff 1)
D Fm E
Turn into something beautiful.

D Fm E D
And you know, you know I love you so...
You know I love you so.

INTERLUDE:
(Solo)
C G6 Fmaj9 C

VERSE 4:
I swam across,
I jumped across for you.
Oh, what a thing to do.
'Cause you were all yellow.

VERSE 5:
I drew a line,
I drew a line for you.
Oh, what a thing to do.
And it was all yellow.

Chorus:

Your skin, oh yeah your skin and bones


Turn into something beautiful.
And you know, for you I'd bleed myself dry.
For you I bleed myself dry.

SOLO:
It's true.
Look how they shine for you.
Look how they shine for you.
Look how they shine for...
Look how they shine for you.
Look how they shine for you.
Look how they shine.

OUTRO:
C
Look at the stars,
Gm7
Look how they shine for you,
Fmaj9
And all the things that you do.

**********************************************************************

song: the scientist


band: coldplay
tabbed by:streetspirit87
Capo on 5th fret (this may not actually be what Chris is doing
but it at least sounds very close to me,
and probably means fewer barre chords!)

Chords: (relative to capo)


EADGBe
Am (x02210)
F (13321x) (could play 133211 sometimes)
C (x32010)
Cadd9 (x30010)
G (320033)

Verses:
Am F C C Cadd9 (x4)

Chorus:
F C C Cadd9
F C Cadd9 G C

LYRICS

Verse 1:
Am F
Come up to meet you
C
Tell you I'm sorry
Cadd9
You don't know how lovely you are
(chords similarly for the rest of the verse)
I had to find you
Tell you I need you
Tell you I set you apart
So tell me your secrets
And ask me your questions
And oh let's go back to the start
Running in circles
Chasing our tails
Heads on a silence apart

Chorus:
F
Nobody said it was easy
C Cadd9
Oh it's such a shame for us to part
F
Nobody said it was easy
C Cadd9 G
No one ever said it would be so hard
(pause chords) G C
I'm going back to the start

Am F C C Cadd9

Verse 2 (same as Verse 1):


I was just guessing
At numbers and figures
Pulling your puzzles apart
Questions of science
Science and progress
Do not speak as loud as my heart
So tell me you love me
Oh come back and haunt me
Oh when I rush to the start
Running in circles
Chasing our tails
Coming back as we are

Chorus (see above)

F C C Cadd9

Am F C Cadd9

Am F C Cadd9 (4th time end on C)


Oh ooooh (x4)

Estelares
El corazn sobre todo

Intro: A G Bm A G D

D
Sinceramente,
G A D
hace tiempo que nadie espera en la vereda de enfrente,
G A Bm
cruzando el boulevard, congelado en la frente.
G A D
Aunque me beses la boca no es suficiente.

D
y recorde todo,
G A D
especialmente el corazon, el corazon sobre todo.
G A Bm
Todo lo llevo perfecto, lo que aun no se ha roto..
G A D
Guardado aqui adentro en mi pecho izquierdo...
G A D
Guardado aqui adentro en costado izquierdo.

Bm D
Venimos caminando, estan proyectando cine.
D Bm
Estan dando los aos locos.
Bm D
No quiero guardar nada, no quiero callar mas.
D G
Estan dando los aos locos.
G A D
No se si podre curarme de esta..
G A D
resulta que no se si podre sanarme de esta.
D
Me quedan pocas cosas,
G A D Bm
si las enumero sabras que son demasiado pocas...
G A D
demasiadas... pocas cosas.

D
Me quedan pocas cosas,
G A D Bm
si las enumero sabras que son demasiado pocas...
G A D
demasiadas... pocas cosas.

Bm D
La ventana daba al mar, ahora hay tormenta de arena
D Bm
por toda la santa alacena.

Bm D
La ventana daba al mar, ahora hay tormenta de arena
D G
por toda la santa alacena.

A D
No se si podre curarme de esta..
G A D
resulta que no se si podre sanarme de esta.

Solo:

e/-----------------3-------------------3--
B/--5-3------5-3-5------3-1-0----3-1-3----
G/------5-0-------------------0-----------
D/----------------------------------------
A/----------------------------------------
E/----------------------------------------

e/-----------------------------------------------------
B/--------------------------------3-1-0-3--1-0-3--1-0-3
G/--5-4-2-5--4-2-5--4-2-5--4-2-------------------------
D/-----------------------------------------------------
A/-----------------------------------------------------
E/-----------------------------------------------------

e/--3/5---1---3/5--5-3-1-0--------
B/--------------------------3-1---
G/------------------------------2-
D/--------------------------------
A/--------------------------------
E/--------------------------------

e/--3/5--3-1--3/5--3-1---7-5---7-5---7-5-7-7/10
B/---------------------------8-----8-----------
G/---------------------------------------------
D/---------------------------------------------
A/---------------------------------------------
E/---------------------------------------------
Estelares
Un Show

A F#M c#m
1) Conoci una chicas mas hermosa que el sol,
D A B
Tenia los ojos rojos, rojos de amor,
A F#m C#m
Se rio al ver mi ropa y me conmovio
D A B
Todas esas cosas raras despues de un show.

D G A
Mucha gente hablandome...
D G A
Mis amigos riendose...

D
2)Y como un souvenir,
G
Me convierto en su souvenir
A
Se rie de mi,
G A
Me arrastra hasta el jardin...

Todo el mundo esta intentando bailar al compas,


Todo el mundo esta cayendo bebiendo y demas,
Otra de essa noche clasicas para olvidar
Solo que ella es incleible algo va a explotar..

Mucha gente hablandome


Mis amigos riendose

Y como un souvenir,
Me convierto en su souvenir...
Se rie de mi me besa en el jardin...

Solo me ire con vos


Si me escribes una cancion
Que hable de mi
De como robe tu amor...

**********************************************************************

Los Tipitos
Campanas en la noche
E5 C5 D5 G5 B5
D|-5-4-------------5-5-4-4-5-4--------------
A|-2-2--2-2-2-2-2--2-2-2-2-3-3--3-3-3-3-3---
E|------------------------------------------

D|5-5-4-4-5-4---------------5-5-4-4--------------------4------------------|
A|3-3-3-3-5-5--5-5-5-5-5----5-5-5-5-5------------------2--2-2-2-2-2-2-----|
E|----------------------------------3--3-3-3-3-3-3------------------------|
x2
Intro: E5 C5 D5 G5 B5

E5 C5
Un hombre de frente a una ventana
D5
Super lucida la mirada
G5
Recore el paisaje y no
B5 Em
No es su interior es luna
C
Son sombras lejanas del bosque
D
Es algo raro en las estrellas
G
Sonidos que inducen temor
B7 C
Y tambien melancolia de esperar
D
De esperar

ESTRIBILLO:
E
De esperar que ella vuelva
Am D
Y le diga aca estoy mi amor
B C
No existe el olvido
D E
Aca estoy mi amor de vuelta
Am D
He venido, lo puedes creer?
B C
No existe el olvido mi amor
D
No existe

Su mente inquieta se puebla de historias


Su cuerpo es solo memoria
Es eso que hay que sentir
Con paciencia infinita
Andando las calles ajenas
De hombres que al fin le dan pena
Campanas en la noche
Ruidos de melancolia que esperan
Que esperan

ESTRIBILLO

Delirio, tremendo ficcion literaria


Secretos que fueron plegaria
Espejo maldito que al fin
Duplico toda su vida
Andando las calles ajenas
De hombres que al fin le dan pena
Campanas en la noche
Ruidos de melancolia que esperan
Que esperan

Sui Generis
Quizs Porque

Estos son los acordes no frecuentes que se utlizan:


Dmaj7 C/B A7sus4 A7 Dsus4 Bm/A E7
--3-----x------0----0----3------2---0--
--3-----1------3----2----3------3---3--
--3-----0------0----0----2------4---1--
--0-----2------2----2----0------4---0-- --x-----2------0----0----x------
0---2--
--x-----x------x----x----x------x---0--
Empieza con unos arpegios rpidos de D que se escuchan bien bajo y despues sigue con
esto:

-2--3--2--8/10-8--------------------------------------
-3--3--3---------10-8---8h10b8------------------------
-2--2--2--------------9--------9-7---7h9b7-----------7b
-0---------------------------------9-------9-7---7h9---
-----------------------------------------------9-------
-------------------------------------------------------

--8/10-8-------------------------------
---------10-8---8h10b8-----------------
--------------9--------9-7---7h9b7---7b
---------------------------9-------9---
--------------------------------------- ---------------------------------------

D
Quizas porque no soy un buen poeta
Dmaj7
puedo pedirte que te quedes quieta

Bm F#m C C/B C/A A7sus4 A7


hasta que yo termine estas pala-a-bras

Quizas porque no soy un gran artista


puedo decir 'tu pintura esta lista'
y darte orgulloso este mamarracho

G A7 Dsus4
Quizas porque no soy de la nobleza
D F# Bm Bm/A
puedo nombrarte mi reina y princesa
E A7sus4 A7
y darte coronas de papel y cigarrillo

Quizas porque soy un mal negociante


no pido nada a cambio de darte
lo poco que tengo, mi vida y mis sueos

Quizas porque no soy un buen soldado


dejo que ataques de frente y costado
cuando discutimos nuestros proyectos

D F# Bm A E7
Quizas porque no soy nada de e- e- so
A7sus4 D
es que estas aqui en mi lecho

-------8/10-8------8-------------------
-8/10----------10-----10---8---8h10b8b-
-------------------------9-------------
---------------------------------------
---------------------------------------
---------------------------------------

-------------------------
-------------------------
-9-7---7h9b7-----------7b
-----9-------9-7---7h9---
-----------------9-------
-------------------------

-----8---10-8----8-----------------------------------
8/10----------10------10-8---8h10b8------------------
---------------------------9--------9-7---7h9-7---7b-
----------------------------------------9-------9----
-----------------------------------------------------
-----------------------------------------------------

Pappo
Desconfio
Intro: Bm Em A D D/C G/B Bb7 A

D
No se porqu,
F#
imagin,
G
que estbamos unidos,
E7/G#
y me sent mejor,
D Bm
pero aqu estoy,
Em A
tan solo en la vida,
D D/C G/B Bb7 A
que mejor me voy.

Solo: D F# G E7/G# D Bm Em A D D/C G/B Bb7 A

D
Un viejo blues,
F#
me hizo recordar,
G
momentos de mi vida,
E7/G#
y mi primer amor,
D Bm
pero aqu estoy,
Em A
tan solo en la vida,
D
que mejor me voy.

los Autnticos Decadentes


Loco (tu forma de ser)

A
E:|---------------------------------------------------------|
B:|---------------------------------------------------------|
G:|---------2--4---4/6\4---4/6\4---4/6\4--2-----2-----------|
D:|-----2h4----------------------------------4-----4--------|
A:|---------------------------------------------------------|
E:|---------------------------------------------------------|

C#m Bm
E:|---------------------------------------------------------|
B:|------------------------------------------------5----7---|
G:|---2--------------------------------------2--4h6---6-----|
D:|------4--2-----4--2-----4--2--------2--4-----------------|
A:|------------4--------4----------4------------------------|
E:|---------------------------------------------------------|

E
E:|-----------------------7-----7-----7-----7--7/9-7--5h7-5-|
B:|---------------------5-----5-----5-----5-----------------|
G:|----4h6--6--6--4---4-----4-----4-----4-------------------|
D:|---------------------------------------------------------|
A:|---------------------------------------------------------|
E:|---------------------------------------------------------|

(luego entran el sax)

A C#m
E:|----5--5--5--7-5-5---9-9--7------7--9--9--9--12--10--9---|
B:|-----------------------------10--------------------------|
G:|---------------------------------------------------------|
D:|---------------------------------------------------------|
A:|---------------------------------------------------------|
E:|---------------------------------------------------------|

Bm E
E:|---9-10-9--7-7--7--9--7----9-10-9--7-7--7--9--10--10/12--|
B:|---------------------------------------------------------|
G:|---------------------------------------------------------|
D:|---------------------------------------------------------|
A:|---------------------------------------------------------|
E:|---------------------------------------------------------|

A
Te vi llegar del brazo de un amigo
C#m
cuando entraste al bar

te caste al piso
Bm
me tiraste mi vino
me tiraste un sifOn
E
estallaron los vidrios de tu corazOn

A
Te vi bailar brillando por tu ausencia
C#m
sin sentir piedad

chocando con las mesas


Bm
te burlaste de todos
te reste de mi
E
tus amigos escaparon de vos

A
A mi me volvio loco tu forma de ser
C#m
a mi me volvio loco tu forma de ser
Bm
tu egoismo en tu soledad
E
son estrellas en la noche de la mediocridad

me
A mi me volvio...
son joyas de la mediocridad

A C#m
E:|-9--9--9----7-7-7---5-5-5---5--7--5--7--12--12--12-14--12-|
B:|-10-10-10---9-9-9---7-7-7---7--9--7--9--14--14--14-14--14-|
G:|----------------------------------------------------------|
D:|----------------------------------------------------------|
A:|----------------------------------------------------------|
E:|----------------------------------------------------------|

Bm E
E:|---12h14--11h13-10--10--10--9---7----7-7-7-5-4---5-5-5--5-5-7|
B:|---14-----13----12--12--12--10--9----9-9-9-7-5---4-4-7--7-7-9|
G:|-------------------------------------------------------------|
D:|-------------------------------------------------------------|
A:|-------------------------------------------------------------|
E:|-------------------------------------------------------------|

Viniste a mi
tomaste de mi copa
me sonreste asi
nadando en tu delicia
no sabia que hacer
te trate de dejar
me pegaste un sopapo y te pusiste a llorar

Me volvio loco tu forma de ser...

A C#m
E:|-9--9--9----7-7-7---5-5-5---5--7--5--7--12-12-12-12-12-14--12-|
B:|-10-10-10---9-9-9---7-7-7---7--9--7--9--14-14-14-14-14-14--14-|
G:|--------------------------------------------------------------|
D:|--------------------------------------------------------------|
A:|--------------------------------------------------------------|
E:|--------------------------------------------------------------|

Bm E
E:|---12h14--11h13-10--10--10--9---7----7-7-7-5-4---5-5-5--5-5-7|
B:|---14-----13----12--12--12--10--9----9-9-9-7-5---4-4-7--7-7-9|
G:|-------------------------------------------------------------|
D:|-------------------------------------------------------------|
A:|-------------------------------------------------------------|
E:|-------------------------------------------------------------|

A C#m
E:|----------------------------------5--4-----------------------|
B:|---------------------------------------5--7--7p5-5~~---------|
G:|-------2-4--6^-6/4-4-----6^*-7-------------------------------|
D:|---2h4---------------7---------------------------------------|
A:|-------------------------------------------------------------|
E:|-------------------------------------------------------------|

^*:=estirar y volver el mismo sonido incial.

Bm E
E:|-------------------------------------------------------------|
B:|-------5-----------------------------------------------------|
G:|---4/6---6-6/7-7-7-6-4---------------------------------------|
D:|-------------------------------------------------------------|
A:|-------------------------------/7 7-7---7/9-9-9--9/11--------|
E:|-------------------------------------------------------------|

Y a mi volvio loco tu forma de ser...

Soda Stereo
un misil en mi placard

Intro:
(A9/F# A7/4 A6+/9 Em7+) se repite 3 veces, A9/F# A7/4 Bm 6ta al aire

a)

A9/F#* A7/4* A6+/9* Em7+*


Refugiados sobre el divn
A9/F#* A7/4* A6+/9* Em7+*
Agitados por nuestras formas
A9/F#* A7/4*
Algo ocurri, una extraa sensacin
A6+/9* Em7+*
Un presentimiento.
A9/F#* A7/4* Bm* 6ta al aire
Tuve que dejar de hacer el amor, en el momento

A9/7* A7/4* A6+/9* Em7+*


Fui en busca de un abrigo
A9/7* A7/4* A6+/9* Em7+*
Encend un cigarrillo

b)
A
Y ah lo vi

G F#m
Un misil en mi placard
G
Mi placard
A G Bm 6ta al aire
Un modelo para armar, pero nunca para desarmar

Fraseo:

6-7---7---------------------------------------------
5--5---5--------------------------------------------
4---4---4---7---------------------------------------
3--------4-4-4s7-----7-----------4------------------
2---------------7-5-5-5s7-7-7-7-7--7-----7----------
1---------------------------------5-5-7-5-5s7-7-9-5- Fm7# 6ta al aire

a)

Te mire tristemente

No hay mas tiempo que perder

b)

Estaba ah

Un misil en mi placard

mi placard

Un modelo para armar, pero nunca para desarmar

El rasgado cambia.

c)

A9* B4* A9* G6


Aqu tambin,
B4* A4* G6
o creas que estabas lejos,
A9* B4* A9* G6
tambin
B4* A4*
O creas que estabas lejos

D9 Em7 se repite varias veces

Acordes confusos:

A9/F#* A7/4* A6+/9* Em7+* Fm7#* A9* B4* G6 D9 Em7


6-*------*------*-------*-----*-----*----*----*---*---*
5-9------7------9-------7-----9-----7----9----5---0---2
4-7------5------7-------5-----11----7----9----5---0---2
3-9------7------6-------4-----9-----6----7----4---2---0
2-0------0------0-------0-----10----0----7----0---3---3
1-0------0------0-------0-----9-----0----0----0---0---0
Estelares
Un da perfecto
C
Otra vez que tu me dices que s
G
Una vez que yo te digo por fin
Am
Ests fresca radiante en todo expectante
G
Tan bella creciente altiva elegante

C
Quiero decir que no me voy a ir
G
Ya estoy aqu slo quiero subir
Am
Este ingenio brillante lmpara mediante
G
Este flor de atorrante contursi malenate

F Fm
No sabes de un no
C Am
No hay luz que no concuerde
F Fm
Tan cerca los dos
G G
Los dioses resplandecen

C G
Hoy es el da perfecto
Am
nos quitamos lo puesto
G
Golondrinas en pleno cortejo hechicero
C G
Hoy es el da perfecto
Am
Todos hablan de esto
G
Carrusel de los sueos gorriones pequeos

C
Se puede ver a Ava Gardner en t
G
Dicen que est Frank Sinatra en m
Am
Ests toda divina subiendo la cuesta
G
Toda exultante damasco crocante

C
Quiero decir que no voy a partir
G
Ya estoy aqu solo quiero subir
Am
Este ingenio brillante lmpara mediante
G
Este flor de atorrante contursi malenate

F Fm
No sabes de un no
C Am
No hay luz que no concuerde
F Fm
Tan cerca los dos
G G
Los dioses resplandecen

C G
Hoy es el da perfecto
Am
nos quitamos lo puesto
G
Golondrinas en pleno cortejo hechicero
C G
Hoy es el dia perfecto
Am
Todos hablan de esto
G
Carrusel de los sueos gorriones pequeos

Solo:

e/-----------------3-------------------3--
B/--5-3------5-3-5------3-1-0----3-1-3----
G/------5-0-------------------0-----------
D/----------------------------------------
A/----------------------------------------
E/----------------------------------------

e/-----------------------------------------------------
B/--------------------------------3-1-0-3--1-0-3--1-0-3
G/--5-4-2-5--4-2-5--4-2-5--4-2-------------------------
D/-----------------------------------------------------
A/-----------------------------------------------------
E/-----------------------------------------------------

e/--3/5---1---3/5--5-3-1-0--------
B/--------------------------3-1---
G/------------------------------2-
D/--------------------------------
A/--------------------------------
E/--------------------------------

e/--3/5--3-1--3/5--3-1---7-5---7-5---7-5-7-7/10
B/---------------------------8-----8-----------
G/---------------------------------------------
D/---------------------------------------------
A/---------------------------------------------
E/---------------------------------------------
C G
Hoy es el da perfecto
Am
nos quitamos lo puesto
G
Golondrinas en pleno cortejo hechicero
C G
Hoy es el dia perfecto
Am
Todos hablan de esto
G
Carrusel de los sueos gorriones pequeos

Andrs Calamaro
Soy Tuyo

G D
Me gusta desarmarme arriba tuyo

B7 Em
me gusta demasiado ensuciarte

C G A7 D
besar tu flor, inmediata, besarte atrs y adelante.

G D
Me gusta tanto que me encante,

B7 Em
que quiero hasta la locura,

C G
desarmarme en el vaivn de tu cintura,

A7 D
y remar sobre tu espalda y naufragarte.

G D
Soy tuyo, con mi mayor conviccin,

B7 Em
soy tuyo con toda la fuerza de mi corazn,

C G
que es tuyo, y como cada pensamiento mo,

A7 D
es tuyo , soy tuyo.
Attaque 77
Beatle
G Em G Em
S que vos me ams, sabs que yo te amo

Am D# F G D
mi amor por vos es nico pero no es mi nico amor

(Ac ya es con distorcin y acordes en 5ta)

G Em G Em
S que vos me ams, sabs que yo te amo

Am D# F G
mi amor por vos es nico pero no es mi nico amor

C G D Bm
Bueno, anoche lo pasamos muy bien, nos podramos volver a ver

C G D G
Ella supo que el pendejo flashe y por las dudas le dijo otra vez

G Em G Em
S que vos me ams, sabs que yo te amo,

Am D# F G
mi amor por vos es nico pero no es mi nico amor

C G D Bm
Pueblo chico infierno grande, sabs? Si se enteran tus padres esta vez

C G D G
voy a terminar en problemas y yo no quiero los con la ley

Em G G G/F# Em G G G/F#
Asi va a ser mejor, me conocs muy bien

Em G C D G
No me sigas, no pierdas tu tiempo, soy libre y vos tambin

e:-------------------------------------------------------------------------
b:-----------------------------------------------------------------3-5-5/8-
g:-----------------------------2-------------------0-----2-----2/4---------
d:-0---0-0/2-------0---0-2-2/4---4-2---2-0-----0-2---1-----3-0-------------
a:---2-------2---2---2---------------------3-3---------3-------------------
E:-------------------------------------------------------------------------

Pueblo chico, infierno grande, Sabs? Si se enteran tus padres esta vez
voy a terminar en problemas y yo no quiero los con la ley.
As va a ser mejor, me conocs muy bien
no me sigas, no pierdas tu tiempo, soy libre y vos tambin.
S que vos me ams, sabs que yo te amo
mi amor por vos es nico, pero no es mi nico amor

D# F G
Pero no es mi nico amor

D# F D# F
Pero no es mi nico... Pero no es mi nico...

D# F G Em D C C/B A G
Pero no es mi nico amoooooooouuuuooooor amoooor
The kooks

Ooh La Tab

Chords:

G - 3, 2, 0, 0, x, 3 or 3, 5, 5, 4, 3, 3
C - 0, 3, 2, 0, 1, 0 or x, 3, 5, 5, 5, 3
Bm* - x, 2, 4, 4, 3, 0
Bm - x, 2, 4, 4, 3, 2
Em - 0, 2, 2, 0, x, 0
A - x, 0, 2, 2, 2, 0
Em* - 0, 2, x, x, x, x
F#* - 2, 0, x, x, x, x
G* - 3, 0, x, x, x, x

-------------------------------------------

Intro: Bm*

Verse:
Bm*
In their eyes is the place that you finally discovered
G
That you love it here, youve got to stay
Em
On the bottom of the rock, an island
Bm
On which you find you love it when you twitch
G G C G
You feel that itch in you pettycoat
Em
Your pretty pretty pettycoat
Bm
Then you smiled, he got wild
G
You didnt understand that theres money to be made
Em
Beauty is a card that must get played
A
By organisation

Chorus:
Bm G A Em Em* F#* G*
And ooh la, she was such a good girl to me
G Bm A Em Em* F#* G*
And ooh la, the world just chewed her up, and spat her out
G Bm A Em Em* F#* G*
And ooh la, she was such a good girl to me
G Bm A Em
And ooh la, the world just chewed her up, and spat her out

Verse 2:(start with Bm not Bm*)


The world can be a very big place
So be yourself dont get out of place
Love your man and love him twice
Go to Hollywood and pay the price
Oh go to Hollywood

And dont be a star, its such a drag


Take care of yourself, dont begin to lag
Its a hard life to live, so live it well
Ill be your friend and not in pretend
I know you girl
In all situations

Chorus x1

Solo:
If you watch the first video, you will understand what i mean
by the intro to this solo. Verse chords are played over this.

Video 1 Solo update:


(7.26)
e|---------------------------------------------0-0---0-0-----------------|
B|---------------------------------------------8/10--8/10--10\8----------|
G|--9-b-10~~~~~~10p9p7-9-7~--9-7-9-7-9-7-9-7-9-9/11--9/11--11\9--7-9-7-9-|
D|-----------------------------------------------------------------------|
A|-----------------------------------------------------------------------|
E|-----------------------------------------------------------------------|

|--0-0----9-------10-------10------10-10-12-10----12-10----12-10----|
|--8/10-10--10-------10-------10---------------10-------10-------10-|
|--9/11-11-----11-------11-------11---------------------------------|
|-------------------------------------------------------------------|
|-------------------------------------------------------------------|
|-------------------------------------------------------------------|

|-13-10----------------------------------------------|
|-------12-10----------------------------------------|
|-------------12-11-9-7-9-7-------7-9-9b10~~~--------|
|---------------------------9-7-9--------------------|
|----------------------------------------------------|
|----------------------------------------------------|

Pretty pretty pretty pretty pretty pretty pretty pretty pretty


Pretty pretty pretty pretty pretty pretty pretty pettycoat
Pretty pretty pretty pretty pretty pretty pretty pretty pretty
Pretty pretty pretty pretty pretty pretty pretty pettycoat
In all situations

Chorus x1
And finish.
THE KOOKS
MR MAKER
Verse 1
D Bm
Mr Maker hes got it made
F#m A G F#m Em
A beautiful wife and a baby on the way
D Bm
And his bills are already paid
F#m A G F#m Em
No need to skimp no need to save
D Bm
But all around him the world grows hard
F#m A G F#m Em
He thinks to himself he must have played a lucky card
D Bm
If he was alone hed give it all away

F#m A G F#m Em
To people and things he wanted to say

Chorus
Em A
But oh no its all right
D Dmaj9 Bm
Mr Maker hell be fine
Em A
It alright its ok
D Dmaj9 Bm
Because of the love he gave away
Em A A7
Oh yeah oh yeah

Intro

Verse 2

Chorus

Bridge
Em A
Heart beat stay heavy
Em A A7 D Bm
Love us all please, Stay on your feet for me
F#m A G F#m Em D Bm
For me, Stay on your feet for me
F#m A G F#m Em D Bm
For me, Stay on your feet for me

Kevin Johansen calidad:


Desde que te perd kjoh0152

AUTOR: Kevin johansen


ALBUM: City zen (2004) Enviado por karen
Esta va pa m.....y para el bangulanguladu jejejeje :D

Modo 1:
Em7 Bsus(9)
Las cosas no andaban bien,
Cmaj 7/B
nada me sala,
Bsus(9)
mi vida era un tnel sin salida, pero...

A
Desde que te perd
Abm7
se estn enamorando todas de m

F#m7
y hasta algunas me quieren convencer

B6 E
que con ellas podra ser feliz.

Modo 2:

A
Desde que te perd, las puertas

Abm7
se me abren de par en par,
F#m7
se me abri hasta la puerta de Alcal

A6/F# D6/F# B7sus E


y yo aprovecho cada oportunidad.

Modo 3:
G
Desde que te perd,

nunca tuve tal libertad,

Em
desde que te perd,
A6/F#
no me importa nada de n...

Modo 1:
Desde que te perd
la vida me sonre sin cesar,
tengo trabajo y mucha estabilidad
y hasta he trepado en la escala social.

Modo 2:
De gape en gape,
princesas me sonren de cuando en vez,
me dicen el Hugh Hefner Aragons,
seguro que no sabes ni quin es... seguro

Modo 3:
Desde que te perd hago lo que me da la gana
Desde que te perd ya no tengo ganas de nada...

Modo 1:
Desde que te perd
tomamos unas caas por ah,
me dices que no es lo mismo ya sin m,
que ahora tambin eres mucho ms feliz...

Bm7
Desde que te perd,

B6 E
desde que me perdiste
G
desde que me perd,

Bm7
desde que te perdiste...

A Abm7 F#m7 B6 E
lailalalalalalalalaila,

A Abm7 F#m7 B6 B6
lalalailalalala desde que te perd.

Acordes:
Em7 022030
Bsus(9) 022020
Cmaj7/B 022010
A 577655
Abm7 464444
F#m7 242222
B6 024140
E 022100
A6/F# 224222
D6/F# 224232
B7sus 022200
G 320003
Em 022000
Bm7 797777

Babasnicos
Ideas
AUTOR: los Babasnicos corregir
ALBUM: desconocido
Am C D F G Am C D F G
No digo nada, digo no.

C F
Olvdate de m, ya no somos amigos
G G C
y quiero, que me quieras igual
G F
como todo en la tierra tiene su nombre,
G
esto se llama:

Am C D
Formas nufragas viajan a la deriva
F G Am
al encuentro con la nada misma,
C D
formas nufragas viajan a la deriva
F G
al encuentro con la nada.

Am C D F G

Am C D F G C
No digo nada, digo no, digo no, digo.

C F G G

C F
Buscame por ah, sigo un paso adelante
G G C
haciendo, que me sigas igual
G F
y hacia adnde te marches recuerdes,
G
que esto se llama:

Am C D
Formas nufragas viajan a la deriva
F G Am
al encuentro con la nada misma,
C D
formas nufragas viajan a la deriva
F G
al encuentro con la nada.

Am C
No digo, no digo,
D F
no digo nada, digo no, digo no, digo
G Am C
no digo nada, digo no...
D F
no digo nada, digo no, digo no, digo
G Am
no digo nada, digo no.

Am C D
No sabe si comprar humor por escalada
F G
o salir de madrugada sin un plan,
Am C D
as no puede declarar la guerra a nadie
F G Am
y cada vez, cada vez se enoja ms.

Am C
No digo, no digo,
D F
no digo nada, digo no, digo no, digo
G Am C
no digo nada, digo no...
D F
no digo nada, digo no, digo no, digo
G A5 C5 D5 A5
no digo nada, digo no.

A5 C5 D5 A5

A5
Claro que estamos de paro,
C5 D5 A5
pero tambin de otra cosa...
A5
y digo, claro que estamos de paro,
C5 D5 A5
pero tambin de otra cosa...

Am C
No digo, no digo,
D F
no digo nada, digo no, digo no, digo
G Am C
no digo nada, digo no...
D F
no digo nada, digo no, digo no, digo
G Am
no digo nada, digo no.

**********************************************************************

Babasonicos
A propsito
intro: G A F#m G
G A F#m G
G A F#m G
G A F#m G

D A
Habls como si todo lo que decs te lo estuvieran escribiendo
Bm
entonces controlan tus labios, tus narices
G
que me lo estn proponiendo
D A
Las palabras se mezclaron al salir de tu boca caprichosa
Bm
como un crupier de casino de ruta
G
que juega al tarot por dinero

G A F#m G
Lo que me decis no me cierra
G A F#m G
hagmoslo igual en privado
G A F#m G
No me importan las consecuencias
G A F#m G
hagmoslo igual en privado

D
Te movs como si todo lo que hacs
A
te lo estuvieran sugiriendo
Bm
desde detrs de tu oreja
G
o desde algn punto que no conozco ni acierto
D
Creo entender que tus intenciones
A
me afectan seriamente
Bm
me lo recordaste una tarde
G
a barlovento en el puerto de Quequn

G A F#m G
Lo que me decis no me cierra
G A F#m G
hagmoslo igual en privado
G A F#m G
No me importan las consecuencias
G A F#m G
hagmoslo igual en privado

Bm A Em
Late una intriga oculta en cada ostra
Bm A Em
un racimo perla en general
Bm A Em
Soy un buscador de esos que no se conforman
Bm A Em
donde nadie encuentra, encontrar

puente: D A Bm G x 2

D
Pusiste la miradapor algn lugar
A
algo fuera de mi alcance
Bm
de lejos me hiciste la sea de algo confuso,
G
lo que los dos suponemos
D
Perdamos algo juntos, por lo menos ya,
A
y festejemos el acuerdo
Bm
Pasa que sos tan hermosa
G
y yo estoy hechizado
G
y esto no tiene remedio

G A F#m G
Lo que me decis no me cierra
G A F#m G
hagmoslo igual en privado
G A F#m G
No me importan las consecuencias
G A F#m G
hagmoslo igual en privado x2

fin

**********************************************************************

Charly Garcia
Cerca de la revolucin

INTRO:
RIFF 0
RIFF 1 X4
RIFF 2
RIFF 1 X2

RIFF 1
Porque no vienes hasta m,
Em G Am7
porque no puedo amarte.
RIFF 3
Porque no vienes hasta m,

porque cambias como el sol


porque eres tan distante
porque no cambias como el sol.
RIFF 4
Me siento slo y confundido a la vez
los analistas no tienen nada que hacer
ya no se bien que decir
ya no se ms que hacer
todo el mundo loco en el purvi and jean.

Am7 Bm2 RIFF 5


Pero si insisto, seguir.
Am7 Bm2 RIFF 5
Pero si insisto, yo se muy bien te con seguir.

RIFF 1 X2

RIFF 1
Cerca de la revolucin,
Em G Am7
el pueblo pide sangre
RIFF 3
cerca de la revolucin

yo estoy cantando esta cancin


que alguna vez fue hambre
estoy cantando esta cancin.

RIFF 4
Y si maana es como ayer otra vez
lo que fue hermoso ser horrible despus.
tambin el ritmo es una cuestin de elecciones.
No eleg este mundo, pero aprend a confiar.

Am7 Bm2 RIFF 5


Pero si insisto, seguir.
Am7 Bm2 RIFF 5
oh seguir.

RIFF 1 X4

RIFF 4
Si estas palabras te pudieran dar fe
si esta armona te ayudara a creer
yo sera tan feliz, tan feliz,
que morira arrodillado a tus pies.

Am7 Bm1 RIFF 5


Pero si insisto, yo se muy bien
seguir.
Am7 Bm1 RIFF 5
Pero si insisto, yo se muy bien te con seguir.

SOLO

RIFF 1 Y RIFF 6

RIFF 0:
e|----------------------------------------------
B|----------------------------------------------
G|----------------------------------------------
D|----------------------------------------------
A|--------------------------------------------2-
E|-0-0--3-5-5--3-0-0--3-5-5-5-3-0-0--3-5-5--3-0-

RIFF 1:
e|------------------------------
B|------------------------------
G|------------------------------
D|------------------------------
A|-2-2--5-7-7--5-2-2--5-7-7-7-5-
E|-0-0--3-5-5--3-0-0--3-5-5-5-3-

RIFF 2:
e|-10-10-12-12-10-10-12--10-12-------10-10-12-12-10-10-12--10-12-
B|-10-10-12-12-10-10-12--10-12-------10-10-12-12-10-10-12--10-12-
G|-----------------------------6-6-6-----------------------------
D|---------------------------------------------------------------
A|---------------------------------------------------------------
E|---------------------------------------------------------------

RIFF 3:
e|-------------------------
B|-------------------------
G|-------------------4--5--
D|-------------------3--4--
A|-------5-7---------4--5--
E|-5-6/7-----7-0-7-7-------

RIFF 4:
e|--------------------------
B|--------------------------
G|--------------------------
D|-----------3/5--5-7-7-----
A|-5--5-3--3-1/3--3-5-5-8-7-
E|-3--3-1--1------------6-5-

RIFF 5:
e|----------------------------
B|----------------------------
G|----------------------------
D|------3-5-5--3------3-5-5-5-
A|-5-5--1-3-3--1-5-5--1-3-3-3-
E|-3-3-----------3-3----------

SOLO:
e|---------------------------3-5-5```-3-5/-------7`7h
B|---3---3```--------------5---------------5-8-5-----
G|-4---4------4-0-2```-0-----------------------------
D|-----------------------2---------------------------
A|---------------------------------------------------
E|---------------------------------------------------

e|6h5h0--------10-------12----------------------------
B|------5h5-12----12-11----8h10-8-10-8-------10/12-10-
G|-------------------------------------9-7-9----------
D|----------------------------------------------------
A|----------------------------------------------------
E|----------------------------------------------------

e|--------------------------------------10-10-12-12-
B|-8-----------8--8-7-5-3-2-------------10-10-12-12-
G|---9-7---7-9--------------0h2-0h2-0---------------
D|-------9-------/9-7-5-4-2-----------2-------------
A|--------------------------------------------------
E|--------------------------------------------------

e|-10-10-12--10-12----------------10-10-12-12-10-10-12--10-12-
B|-10-10-12--10-12----------------10-10-12-12-10-10-12--10-12-
G|------------------------------------------------------------
D|--------------------5-7-7```-5/-----------------------------
A|------------------7-----------------------------------------
E|------------------------------------------------------------

e|-12``------------------10-10-12-12-10-10-12--10-12--------------------
B|-15``-15-12-14-15------10-10-12-12-10-10-12--10-12--14/15-14-12-14/15-
G|------------------12``------------------------------14/15-14-12-14/15-
D|----------------------------------------------------------------------
A|----------------------------------------------------------------------
E|----------------------------------------------------------------------

e|-------------------------------------------------------------------
B|-14-12-14/15-14-12-14/15-12-14/15-14-12-12---12---12---12----------
G|-14-12-14/15-14-12-14/15-12-14/15-14-12-14``---14`--14`--14`-12-12-
D|-------------------------------------------------------------------
A|-------------------------------------------------------------------
E|-------------------------------------------------------------------

e|------------------------------------------------
B|-------8/10--8-8``-10``-8h10-8`8-------------1--
G|---7--7----------------------------2-2------0-0-
D|-/9--9---------------------------------0-0h2----
A|------------------------------------------------
E|------------------------------------------------

RIFF 6:
e|-----------------
B|-----------------
G|-----------------
D|-----------------
A|-2-2--5-7-7--5-2-
E|-0-0--3-5-5--3-0-

ACORDES:
EADGBe
Em 022000
G 320033
Am7 X02010
Bm2 X12211

**********************************************************************

CHIPI CHIPI

[G Em Am7 D]

G
Yo nunca vi New York
Em
no se lo que es Pars
Am7
vivo bajo la tierra,
D
vivo dentro de mi.
G
Yo no tengo un espejo
Em
...........(no canta)
Am7
la lgrima me habla
D
est dentro de mi.

Dm G7
Yo solo tengo esta pobre antena,
C Cm
que me transmite lo que decs,
G D/F# C
esta cancin, mi ilusin, mis penas
D G
y este souvenir.

Yo subo la escalera. Uh!


yo cumplo una misin
la lgrima me dice
que yo tampoco soy.
La hija de un amor,
la hija del dolor,
yo soy,
quien no debe ser.
Dm G7
.....................(no canta)
C Cm
no digas nada vete de aqu
G D/F# C
porque yo voy donde nunca estoy,
D G
donde nunca fui.

C
Tmalo con calma,
Em
la cosa es as,

C
ya se hace de noche,
D
me tengo que ir.

Am7 Eb G Em C Am7 D D4 D

G
Chipi, chipi
chipi, chipi
Em
bom bom
C
bom bom
D
bom bom
G Em Am D
Chipi, chipi

Yo no te pienso esperar por siempre


porque el mercurio lo tengo aqu
no digas malas palabras, nene
ya vete de aqu.

[G Em Am D] x 2

Esta cancin durar por siempre,


por eso mismo yo la hice as
una cancin sin amor, sin dolor
la cancin sin fin. [again]
Dm G7
Esta cancin durar por siempre,
C Cm
Como los discos,
G D/F# C
Mmmmmmmmmmmm...
D G D-G
La cancin sin fin.

Espero que me haya salido bien


Mario Negrete y Gustavo oso Solis se la re comen igual
Que todos los del grupo scout San pompilio (especialmente
El Negro y fer)
Aguante la comunidad caminantes chalten

Creo Que en V.S.D cometi un error pero ya lo voy a mandar y


De paso voy a mandar los punteos de asesiname.

LA SALIDA VEMOS

"
Vamos a tocar una obra muy profunda,
que se llama Chipi-Chipi, Bom-Bom.

- - - - - - -

Solo de guitarra: Chipi-Chipi


Mara Gabriela Epumer
Hello! MTV Unplugged
1995

-------------------------------------

(...donde nunca fu)

E-----------------/
B--3--5-3-0---.---/
G--4----------0---/
D-(5)-------0-----/
A-----------------/
E-----------------/

(...la cosa es as)

E--------------------------/
B--12--11---9/10-8---------/
G--------------------------/
D--12--11---9/10-9---------/
A--------------------------/
E--------------------------/

(...ya se hace de noche)

E--------0-0---/
B--3-3---0-0---/ Esto en realidad lo hace el piano,
G--0-0---0-0---/ pero si vas a tocar solo con guitarra
D--0-0---2-2---/ y no quieres dejar un silencio puedes
A--------------/ tocarlo as.
E--------------/

(...me tengo que ir)

Solo

E--------------------------------------------------------------/
B----------------------------------------10^(11)-10------------/
G--9-12-12-12-9-12--12~-12~~-12~~~--9-12------------12-12------/
D--------------------------------------------------------------/
A--------------------------------------------------------------/
E--------------------------------------------------------------/

E--------------------------------------------------------------/
B--------17-15----15^(17)-15-----------------3~----------------/
G--12-16-------16------------12-12~--4-------------------------/
D--------------------------------------7-5---------------------/
A------------------------------------------7-------------------/
E--------------------------------------------------------------/

E----------------.-----.--.--14-15-12----------------------15--/
B------8~-------12----10-12-----------15^(16)^15-12---------.--/
G--8h9----10/12----12-------------------------------14^(15)----/
D--------------------------------------------------------------/
A--------------------------------------------------------------/
E--------------------------------------------------------------/

E---------.-------------|-----15---15--|----------|--15---15---/
B--10p8---8-.-.---------|------.----.--|------8~--|---.----.---/
G-------9---9-7-.-------|--12----------|--7-9-----|------------/
D---------------9-7~/0--|--------------|----------|------------/
A-----------------------|--------------|----------|----|2x|----/
E-----------------------|--------------|----------|------------/

(*despus solo se sigue con acordes y algo parecido a lo ltimo


pero una octava abajo*)
D - G

-------------------------------------
CAE EL SOLO- AIRBAG- LOS BONNITOS

Intro:C#mAEX4

C#mAE
Caeelsolentubalcon
C#mAE
yelritualseterminio
BC#m
laverdadesquenohasidofacil
BC#m
laverdadesquenohasidofacil
A
paralosdos
B
sigoaquiesperandoporti

Estribillo
C#mA
Yoquieroiralgunlugar
E
endondepuedadespertar,

yoqierovertesonrreir

yqnotengasqmentir,

C#mA
Novesqestoy,estoyaqui
C#m
dejandotodamiverdad,

noquedanadieenlaciudad
C#mAE
peroporvosmequedoaca,

esperandoporti

C#mAE
Ynosequefuedemas
C#mAE
yonosequeestubomal
BC#m
ylaluzmesegoentucamino
BC#m
descubri,entendielinfinito
A
entrelosdos
B
sigoaquiesperandoporti

Estribillo.

**********************************************************************

La Vela Puerca
Zafar
INTROAm
100|
211|
3|
42|
50|
6|
1)Tocar6veces
DmG
----1-----1-----3-----3-------------|
----3-----3-----3-----3-------------|
------------------------------------|
00|
-------------------2----------------|
-------------3----------------------|
2)1vez
AmAmDmG
----0-----0------0-----0------1-----1-----3-----3--
----1-----1------1-----1------3-----3-----3-----3--
---------------------------------------------------
-------2------------2------0-----0-----------------
002
---------------------------------------3-----------
3)Tocar2vecesenintro,enlacancionunasolavesporverso

Luegotocar1)dosvecesyDm,G

ENTODALACANCIONSETOCA3)
Soydelaciudadcontodoloqueves:
Consuruido,consugente,consumevejez;
ynopuedoevitarelhumoqueentrahoy,
peroigualsigocreciendo,soyotrocarbn.
Novoyaimaginarlapenaenlosdems;
comproairey,siespuro,pagomuchoms;
novoyatolerarqueyanotenganfe,
quesebajenlosbrazos,quenohayalucidez.

Mevoy,volandoporah,
yestoyconvencidodeir;
Mevoy,silbandoysinrencor,
1)DmG
yestoyzafandodelolor.

Meencontrconlagentequesabevalorar,
que,deturistaenlaCapitalhasabidovagar,
ynohaencaradoalfin,lacrudarealidad
derespirarholln,delloraralquitrn.
Yempiezoaenvejecer,sudandomiverdad,
criadopatoser,conmuchavariedad;
yadndeiraparar,cargandoconmiolor;
deberamosandardesnudospasentirnosmejor.

SEGUNDAGUITARRAPUNTE05)
Mevoy,volandoporah,
yestoyconvencidodeir;
Mevoy,silbandoysinrencor,
1)DmG
yestoyzafandodelolor.

Solo
AmDmG
Soydelaciudadcontodoloqueves:
AmDmG
Consuruido,consugente,consumevejez;
AmDmG
ynopuedoevitarelhumoqueentrahoy,
Am
peroigualsigocreciendo,soyotrocarbn.

SIGUECON3)Segundaguitarrapunteo4)
Novoyaimaginarlapenaenlosdems;
comproairey,siespuro,pagomuchoms;
novoyatolerarqueyanotenganfe,
quesebajenlosbrazos,quenohayalucidez.

SEGUNDAGUITARRAPUNTEO5)
Mevoy,volandoporah,
yestoyconvencidodeir;
Mevoy,silbandoysinrencor,
1)DmG
yestoyzafandodelolor.

SEGUNDAGUITARRA6)
Mevoy,volandoporah,
yestoyconvencidodeir;
Mevoy,silbandoysinrencor,
1)DmG
yestoyzafandodelolor.

Punteo4)
----------------------------8--------------
8h108h1088h101010h12h10
-------------------------------------------
-------------------------------------------
-------------------------------------------
-------------------------------------------

---------------------------8---10--------------
8h108h1088h101010h12h10
-----------------------------------------------
-----------------------------------------------
-----------------------------------------------
-----------------------------------------------

Punteo5)
-----8--12--8---------------------8--12--8---10--------------
8h10108h1088h10101010h1210
-------------------------------------------------------------
-------------------------------------------------------------
-------------------------------------------------------------
-------------------------------------------------------------

Punteo6)
----------8----------8-------------------8--12--8---10---------
8h10h8h108h10h81088h1088h101010h1210
---------------------------------------------------------------
---------------------------------------------------------------
---------------------------------------------------------------
---------------------------------------------------------------

EnanitosVerdes
Lamentoboliviano

TONO:mim
MIm
Mequierenagitar,meincitanagritar
SIm
soycomounaroca,palabrasnometocan
LAm7
adentrohayunvolcnqueprontovaaestallar
MImSI7
yoquieroestartranquilo.
MIm
Esmisituacin,unadesolacin
SIm
soycomounlamento,lamentoboliviano
LAm7
queundaempezynovaaterminar
MImSI7
yanadiehacedao.
MImSIm
uoh,yoh,yoh,yoh,oh,oh
LAm7MImSI7
eh,eh,eh,eh,yeh
MImSIm
Yyoestoyaquborrachoyloco
LAm7minSI7
ymicoraznidiotasiemprebrillara
MImSIm
yyoteamar,teamarporsiempre
LAm7
nenanotequedesenlacama
MImSI7
quelosviajantessevanaatrasar
MImSImLAm7MImSI7
MImSImLAm7MImSI7
MImSIm
uoh,yoh,yoh,yoh,oh,oh
LAm7MImSI7
eh,eh,eh,eh,yeh
MImSIm
Yyoestoyaquborrachoyloco
LAm7minSI7
ymicoraznidiotasiemprebrillara
MImSIm
yyoteamar,teamarporsiempre
LAm7
nenanotequedesenlacama
MImSI7
quelosviajantessevanaatrasar
MImSIm
Yyoestoyaquborrachoyloco
LAm7minSI7
ymicoraznidiotasiemprebrillara

MImSIm
yyoteamar,teamarporsiempre
LAm7
nenanotequedesenlacamanono
MImSI7
quelosviajantessevanaatrasar
CafTacuba
Eres

Intro.
AmCEE7x2
-------------------------------------------------------------------------

AmCEE7
e|---------0-------------------------0------|
B|-------1---1-----1-----------0-3-----3----|
G|-----2-------0-------------1-----1-----1--| x2
D|---2-----------2---------2----------------|
A|-0-----------------0-1-2------------------|
E|------------------------------------------|

Eresloquemasquieroenestemundoeso
AmCEE7
e|---------0-------------------------0------|
B|-------1---1-----1-----------0-3-----3----|
G|-----2-------0-------------1-----1-----1--|
D|---2-----------2---------2----------------|
A|-0-----------------0-1-2------------------|
E|------------------------------------------|

Eresmipensamientomsprofundotambin
AmCEE7
e|---------0-------------------------0------|
B|-------1---1-----1-----------0-3-----3----|
G|-----2-------0-------------1-----1-----1--|
D|---2-----------2---------2----------------|
A|-0-----------------0-1-2------------------|
E|------------------------------------------|

Erestansolodimeloquehagoaqume
DmEE7
e|-------1--------3-0----------------0------|
B|-----3---3---3-------------0---3-----3----|
G|---2-------2-------------1---1---1-----1--|
D|-0---------------------2------------------|
A|---------------------2--------------------|
E|------------------------------------------|

Tienes
AmCEE7
e|---------0-------------------------0------|
B|-------1---1-----1-----------0-3-----3----|
G|-----2-------0-------------1-----1-----1--|
D|---2-----------2---------2----------------|
A|-0-----------------0-1-2------------------|
E|------------------------------------------|

Erescuandodespiertoloprimeroeso
AmCEE7
e|---------0-------------------------0------|
B|-------1---1-----1-----------0-3-----3----|
G|-----2-------0-------------1-----1-----1--|
D|---2-----------2---------2----------------|
A|-0-----------------0-1-2------------------|
E|------------------------------------------|

Eresloqueamividalehacefaltasino
AmCEE7
e|---------0-------------------------0------|
B|-------1---1-----1-----------0-3-----3----|
G|-----2-------0-------------1-----1-----1--|
D|---2-----------2---------2----------------|
A|-0-----------------0-1-2------------------|
E|------------------------------------------|

vieneslonicopreciosoqueenmimentehabita
DmEE7
e|-------1--------3-0----------------0------|
B|-----3---3---3-------------0---3-----3----|
G|---2-------2-------------1---1---1-----1--|
D|-0---------------------2------------------|
A|---------------------2--------------------|
E|------------------------------------------|

Hoy
AmCEE7
e|---------0-------------------------0------|
B|-------1---1-----1-----------0-3-----3----|
G|-----2-------0-------------1-----1-----1--|
D|---2-----------2---------2----------------|
A|-0-----------------0-1-2------------------|
E|------------------------------------------|

DmEAmC
Quemaspuedodecirte,talvezpuedomentirtesinrazn
DmGAmCE...
Peroloquehoysiento,esquesintiestoymuertopueseres...

Loquemsquieroenestemundoeso

Eres
e|---------0-------------------------0------|
B|-------1---1-----1-----------0-3-----3----|
G|-----2-------0-------------1-----1-----1--| x2 Solo Guitarra I
D|---2-----------2---------2----------------|
A|-0-----------------0-1-2------------------|
E|------------------------------------------|

(GuitarraIyGuitarraII)
AmCEE7
e|---------0-------------------------0------|
B|-------1---1-----1-----------0-3-----3----|
G|-----2-------0-------------1-----1-----1--| x3 Guitarra I y II
D|---2-----------2---------2----------------|
A|-0-----------------0-1-2------------------|
E|------------------------------------------|

SoloGuitarraII(rasgueandounnivelsuavelasprimerascuerdas)
AmCEE7
Ereseltiempoquecompartoeso
AmCEE7
Eresloquelagenteprometecuandose
DmCEE7
Quieremisalvacinmiesperanzaym
AmCEE7
Fe

Soyelquequerertequierecomonadie
AmCEE7
e|---------0-------------------------0------|
B|-------1---1-----1-----------0-3-----3----|
G|-----2-------0-------------1-----1-----1--|
D|---2-----------2---------2----------------|
A|-0-----------------0-1-2------------------|
E|------------------------------------------|

Soyelquetellevaraelsustentoda
AmCEE7
e|---------0-------------------------0------|
B|-------1---1-----1-----------0-3-----3----|
G|-----2-------0-------------1-----1-----1--|
D|---2-----------2---------2----------------|
A|-0-----------------0-1-2------------------|
E|------------------------------------------|

Dadadaelqueportidaralavidaese
DmEE7
e|-------1--------3-0----------------0------|
B|-----3---3---3-------------0---3-----3----|
G|---2-------2-------------1---1---1-----1--|
D|-0---------------------2------------------|
A|---------------------2--------------------|
E|------------------------------------------|

Soy
AmCEE7
e|---------0-------------------------0------|
B|-------1---1-----1-----------0-3-----3----|
G|-----2-------0-------------1-----1-----1--|
D|---2-----------2---------2----------------|
A|-0-----------------0-1-2------------------|
E|------------------------------------------|

DmEAmC
Aquestoyatulado,yesperoaqusentadohastaelfinaal

DmGAmCE...
notehasimaginado,loqueportiheesperadopueseres...

loqueyoamoenestemundoeso

erescadaminutoenloquepiensoeso
AmCEE7
e|---------0-------------------------0------|
B|-------1---1-----1-----------0-3-----3----|
G|-----2-------0-------------1-----1-----1--|
D|---2-----------2---------2----------------|
A|-0-----------------0-1-2------------------|
E|------------------------------------------|

Eresloquemascuidoenestemundoeso
AmCEE7
e|---------0-------------------------0------|
B|-------1---1-----1-----------0-3-----3----|
G|-----2-------0-------------1-----1-----1--|
D|---2-----------2---------2----------------|
A|-0-----------------0-1-2------------------|
E|------------------------------------------|

Eres...
AmCEE7
e|---------0-------------------------0------|
B|-------1---1-----1-----------0-3-----3----|
G|-----2-------0-------------1-----1-----1--|
D|---2-----------2---------2----------------|
A|-0-----------------0-1-2------------------|
E|------------------------------------------|

-------------------------------------------------------------------------
YparalaGuitarraIIaquestnlasnotas.

AmC
eres,
EE7
loquemasquieroenestemundo
AmC
esoeres,
EE7
mipensamientomasprofundo,
DmD5Dsus4D5XEstasnotassolounrasgueo
tambineres,
EE7
tansolodimeloquehago
AmCEE7
aqumetienes.

AmC
eres,
EE7
cuandodespiertoloprimero,
AmC
esoeres,
EE7
loqueamividalehacefalta
DmD5Dsus4D5XEstasnotassolounrasgueo
sinovienes
EE7
lounico,preciosa,queenmimentehabita
AmCEE7
hoy

DmEAmC
Quemaspuedodecirte,talvezpuedomentirtesinrazn,

DmG
peroloquehoysiento,esquesinti
AmCE...
estoymuertopueseres...

(SOLOARPEGEODOSVECES)
Loquemasquieroenestemundoesoeres.

LUEGOARPEGEOYACORDESx3
AmCEE7

Enestapartelosacordesvanalgoapagados
(Tocarlasprimerascuerdasunpocosuave)

AmC
Eres,
EE7
eltiempoquecomparto,
AmC
esoeres,
EE7DmD5Dsus4D5solounrasgueo
loquelagenteprometecuandosequiere,

EE7AmCEE7
misalvacin,miesperanzaymife.

SEUNEARPEGEOCONACORDES

AmC
Soy,
EE7AmC
elquequerertequierecomonadiesoy,
EE7DmD5Dsus4D5solounrasgueo
elquetellevaraelsustentodaada,daada,
EE7AmCEE7
elqueportidaralavidaesesoy.
DmEAmC
Aquestoyatulado,yesperoaqusentadohastaelfinaal

DmGAmCE...
notehasimaginado,loqueportiheesperadopueseres...
AmC
loqueyoamoenestemundoesoeres

EE7AmC
cadaminutoenloquepiensoesoeres...
EE7
loquemascuidoenestemundo
AmCEE7
esoeres....
-------------------------------------------------------------------------
Lasnotasraras.

D5Dsus4
e|-0-----3--|
B|-3-----3--|
G|-2-----2--|
D|-0-----0--|
A|----------|
E|----------|

Kevin Johansen
Baja a la tierra
LAm RE7
para que voy a hablar?
LAm RE7
si no vas a escuchar
FA DO
para que? si no quers
REm MI7
ni darme ese lugar

LAm RE7
Te recuerdo feliz
LAm RE7
con poquito as
FA DO
no hacia ni tanto ya
REm MI7
que te reas de ti

FA
Baja a la tierra
SOL7 LAm
que no es tan terrible vivir aqu
FA
yo te recuerdo
SOL7 LAm
cuando parecas ser feliz.

LAm RE7
para que quieres mas?
LAm RE7
si tienes todo ya
FA DO
para que? si ya despus
REm MI7
nada te llevaras.

FA
Baja a la tierra
SOL7 LAm
que no es tan terrible vivir aqu
FA
yo te recuerdo
SOL7 LAm
cuando parecas ser feliz. [bis]

LAm RE7
para que voy a hablar?
LAm RE7
si no vas a escuchar
FA DO
para que? si no quers
REm MI7
ni darme ese lugar

FA
Baja a la tierra
SOL7 LAm
que no es tan terrible vivir aqu
FA
yo te recuerdo
SOL7 LAm
cuando parecas ser feliz.
FA
Baja a la tierra
SOL7 LAm
que no es tan terrible vivir aqu
LAm
Baja a la tierra

Kevin Johansen
Anoche son contigo

B
Anoche so contigo
G#m
y no estaba durmiendo
C#m
Todo lo contrario
F#7 D#m9-F#7
estaba bien despierto
D#m
So que no hacia falta
G#
hacer ningn esfuerzo
C#m
Para que te entregaras,
F#7 C#-D#-E
en ti yo estaba inmerso

Coro:

E
Qu lindo que es soar, soar no cuesta nada
B
Soar y nada ms, con los ojos abiertos
G#m
Qu lindo que es soar

E B F#7-D#m9-F#7
y no te cuesta nada ms que tiempo

Qu hacer con tanta angustia, por cosas no resueltas


Con toda esta energa, casi siempre mal puesta
Si pudiera olvidarme, por siempre de mi mismo
Habra de encontrarme, all en tu dulce abismo

Coro:
Qu lindo que es sonar, soar no cuesta nada
Soar y nada ms, con los ojos abiertos
Qu lindo que es soar y no te cuesta nada ms que tiempo

So que no haca falta hacer ningn esfuerzo


Para que te entregaras, en ti yo estaba inmerso

Coro:

Qu lindo que es soar, soar no cuesta nada


Soar y nada ms, con los ojos abiertos
Qu lindo que es soar y no te cuesta nada ms que tiempo

Qu lindo que es soar, soar no cuesta nada


Soar y nada ms, con los ojos abiertos
Qu lindo que es soar y no te cuesta nada ms que tiempo

Anoche so contigo

*Dedicada a Javiera =)

ACORDES
6 5 4 3 2 1

F#add9 x x 4 3 2 4
G#sus4 x x 6 6 4 4
Bsus4 x x 9 9 7 x

Perota Chingo
Rie Chinito
A
e |------0----------------0-------
B |--2---2--2--0-----2----2---0---
G |--2------2--2--2--2--------2---
D |----2----------------2---------
A |--0------0--0-----0--------0---
E |-------------------------------

ABm
Rechinito,sereyyolloroporqueelchinoresinmi.
ABm
Reenlanoche,yachinalosojosmorochosmaslindosquevi.
DA
Soplalascaas,subelamontaamaanaquizsbajar.
BmD
Sehacededa,elsolloencandila,losvientosdescansa
yelchinoseamansa.
ABm
Rechinito,sereyyolloroporqueelchinoresinmi.
ABm
Reenlanoche,yachinalosojosmorochosmaslindosquevi.
DA
Soplalascaas,subelamontaa;maanaquizsbajar.
BmD
Miralaluna,miniayseacuna,queeslargalanoche
yclaroelcamino.
ABmD
Midespedacitoderohastadondebajaras.
AD
Midespedacitodero...
ABm
e |------0--------------------0--------------------------------------------
B |-2----2---2---0-------2----2---2---0---2-----2--2--2------2---2---2---2-
G |-2--------2---2---2---2--------2---2---4-----4--4--2------2---2---2---2-
D |----2--------------------2-------------4---4-----------4----------------
A |-0--------0---0-------0--------0---0---2--------2--2------2---2---2---2-
E |------------------------------------------------------------------------

ABm
Rechinito,sereyyolloroporqueelchinoresinmi.
ABm
Reenlanoche,yachinalosojosmorochosmaslindosquevi.
DA
Soplalascaas,subelamontaamaanaquizsbajar.
BmD
Miralaluna,miniayseacuna,queeslargalanoche
yclaroelcamino.
ABmD
Midespedacitoderohastadondebajaras.
AD
Midespedacitodero...
ABmD
Midespedacitoderohastadondebajaras.
AD
Midespedacitodero.

A
e |------0----------------0-------0--
B |--2---2--2--0-----2----2---0---2--
G |--2------2--2--2--2--------2---2--
D |----2----------------2---------2--
A |--0------0--0-----0--------0---0--
E |----------------------------------

Perota Chingo
Cancin para el viento
intro:(SIm7REmaj7LAmaj7)x2

SIm7REmaj7
hoyelvientolovilibreymeenamore
LAmaj7
lovilibreymeenamore
SIm7
medespertotandulcemente
REmaj7LAmaj7
acariciomipeloymeenamoro

Em7A7REmaj7
ylalluviamadrugueragolpeamiventana
Em7A7REmaj7
voscaesymientrasyoteobservocaaaaer...asi

((DO7)SIm7x3)

SIm7REmaj7
tumisterioesmuchomasinteresanteque
LAmaj7
miimaginacion
SIm7REmaj7
cuandocaigasenmicharcovoyasumergirmeenvos
LAmaj7
mirandoenelreflejovoyasumergirmeenvos
ylalluviamadruguera...

SIm7
quemaravillosaformadeempezareldia
LAmaj7SIm7
enrroscandonos(enrosacandonos)
LAmaj7SIm7LAmaj7SIm7LAmaj7SIm7
enrrosacandonos...asiii..asiii

(SIm7LAmaj7x2)

LAmaj7SIm7LAmaj7SIm7
densificariaelaire
LAmaj7SIm7LAmaj7SIm7LAmaj7SIm7
densificariaeltiempoasi..asi..asi..yasiii
Calle 13 calidad:
La vuelta al mundo c13x0111

AUTOR: Calle 13 corregir


ALBUM: Entren los que Quieran (2010) Enviado por Matias, basado en Santi
Intro:(A#ADmG)X2

A#A
Nomeregalenmslibrosporquenolosleo,
DmG
loqueheaprendidoesporqueloveo
A#A
Mientrasmspasanlosaosmecontradigocuandopienso
DmG
eltiemponomemueveyomemuevoconeltiempo

A#C
Soylasganasdevivirlasganasdecruzar
DmG
lasganasdeconocerloquehaydespuesdelmar
A#C
Yoesperoquemibocanuncasecalle
DmG
tambienesperoquelasturbinasdeesteavinnuncamefallen

A#A
Notengotodocalculadonimividaresuelta
DmG
solotengounasonrisayesperounadevuelta
A#A
Yoconfoeneldestinoyenlamarejada
DmG
yonocreoenlaiglesiaperocreoentumirada

A#C
Tuereselsolenmicaracuandomelevanta
DmG
yosoylavidaqueyatengo,tuereslavidaquemefalta
A#C
Asqueagarratumaleta,elbulto,losmotetes
DmG
elequipaje,tuvalija,lamochilacontodostusjuguetesy..

ESTRIBILLO
A#CDm
Damelamanoyvamosadarlelavueltaalmundo
GA#ADmG
darlelavueltaalmundo,darlealvueltaalmundo
A#CDm
Damelamanoyvamosadarlelavueltaalmundo
GA#ADm
darlelavueltaalmundo,darlealvueltaalmundo

A#A
Larenta,elsueldo,eltrabajoenlaoficina
DmG
locambiporlasestrellasyporhuertosdeharina
A#A
Meescapdelarutinaparapilotearmiviaje
DmG
porqueelcuboenelquevivaseconvirtienpaisaje
A#C
Yoeraunobjetoesperandoaserceniza
DmG
undadecidhacerlecasoalabrisa
A#C
Airmeresbalandodetrasdetucamisa
DmG
nomeconvencinadiemeconvencitusonrisa

Ymefutrasdetpersiguiendomiinstinto
siquierescambioverdadero,puscaminadistinto
Voyaescaparmehastalaconstelacinmascercana
lasuerteesmioxgenotusojossonmiventana

Quierocorrerporsietelagosenunmismoda
sentirencimademismusloselclimadetusnalgasfras
Llegaraltopedelasierra,abrazarmeconlasnubes
sumergirmebajoelaguayvercomolasburbujassubeny..

ESTRIBILLO:
A#CDm
Damelamanoyvamosadarlelavueltaalmundo
GA#ADmG
darlelavueltaalmundo,darlealvueltaalmundo
A#CDm
Damelamanoyvamosadarlelavueltaalmundo
GA#ADm
darlelavueltaalmundo,darlealvueltaalmundo

(A#CDmG)(A#ADmG):Hastaelfinal

A#ADm

De msica ligera

qui lesdejo ya los solos para que la toquen mas chido amigos

Intro:
Bm G D A
1|------------|----------|----------|----------|
2|------------|----------|----------|----------|
3|-------4----|----------|------7---|----------|
4|-------4----|------5---|------7---|------7---|
5|---2--------|------5---|---5------|------7---|
6|------------|---3------|----------|---5------|

*****X6 veces antes de comensa a cantar******

Bm G D A Bm G D A
Ella durmio, al calor de las masas
Bm G D A Bm G D A
Y yo despert, queriendo soarla
Bm G D A Bm G D A
Algn tiempo atras, pens en escribirle
Bm G D A Bm G D A
Y nunca sorti, las trampas del amor

CORO:

Bm G-D-A Bm G-D-A
De aquel amor, de msica ligera
Bm G-D-A Bm G-D-A
Nada nos libra, nada ms queda

Bajeo:

1|-----------------------------------------------------------------
2|-----------------------------------------------------------------
3|-----------------------------------------------------------------
4|-----------------------------------------------------------------
5|---2--2--4--5----4--5--4--2--0-----2----0--2--2--4--5--4--2--0--2
6|--------------------------------2--------------------------------

1|-----------------------------------------------------------------
2|-----------------------------------------------------------------
3|-----------------------------------------------------------------
4|----------------2--4--2------------------------------------------
5|---2--2--4--5-------------5--4---2---0--2----2--4--5--4--2--0--2-
6|-----------------------------------2-----------------------------

Bm G-D A Bm G-D-A
No le enviar, cenizas de rosas
Bm G-D A Bm G-D-A
Ni pienso evitar, un roce secreto

CORO:

Bm G-D-A Bm G-D-A
De aquel amor, de msica ligera
Bm G-D-A Bm G-D-A
Nada nos libra, nada ms queda

Solo......(1) * el mas largo

1|-----------------------------------------------------------------
2|---12--10--12--10--12--10-------------10--9--7--10------7--10--10
3|---------------------------11--9--11----------------11-----------
4|-----------------------------------------------------------------
5|-----------------------------------------------------------------
6|-----------------------------------------------------------------

------12--10--9--10--12--10--9--7--9--7--7----------------7--------
--12----------------------------------------11--10--8--7-----11--10
-------------------------------------------------------------------
-------------------------------------------------------------------
-------------------------------------------------------------------
-------------------------------------------------------------------

1|--------7------------7------------7------------7-----------14--12
2|--8--7-----11--8--7-----11--8--7-----11--8--7----11--8--7--------
3|-----------------------------------------------------------------
4|-----------------------------------------------------------------
5|-----------------------------------------------------------------
6|-----------------------------------------------------------------

1|--14--12--14--15--14--12------12--14--15--14--12--10--9--10--12--
2|--------------------------14-------------------------------------
3|-----------------------------------------------------------------
4|-----------------------------------------------------------------
5|-----------------------------------------------------------------
6|-----------------------------------------------------------------

1|--10--9--7--6--5--3-----7--6--5--3-----8--8--7--7--6--3--2--7----
2|---------------------7--------------7--------------------------11
3|-----------------------------------------------------------------
4|-----------------------------------------------------------------
5|-----------------------------------------------------------------
6|-----------------------------------------------------------------

1|--------8--6--3--2--8--6--3--2--10--9--6--3--10--9--6--3--0--10--
2|--8--7-----------------------------------------------------------
3|-----------------------------------------------------------------
4|-----------------------------------------------------------------
5|-----------------------------------------------------------------
6|-----------------------------------------------------------------

1|--9--6--0--10--9--6--|
2|---------------------|
3|---------------------|
4|---------------------|
5|---------------------|
6|---------------------|

CORO:

Bm G-D A Bm G-D-A
De aquel amor, de msica ligera
Bm G-D A Bm G-D A
Nada nos libra, nada ms queda, nada mas
Bm-G-D-A Bm-G-D

A Bm G-D A Bm
nada ms queda, nada mas queda

A Bm G-D A Bm
nada ms queda, nada mas queda

Solo.... (2) Mas corto y para terminar la rola

1|----------------------------------------------------------------
2|--12--10--12--10--12--10--7--5--7--10--9--7--5--7--7--10--10--12
3|----------------------------------------------------------------
4|----------------------------------------------------------------
5|----------------------------------------------------------------
6|----------------------------------------------------------------

1|--12--10--9--10--12--10--9--7--9--7--7--9--10--12--10--12--14---
2|--------------------------------------------------------------10
3|----------------------------------------------------------------
4|----------------------------------------------------------------
5|----------------------------------------------------------------
6|----------------------------------------------------------------