Está en la página 1de 2

. . . . . . . . .

Punteo inicial: 1-----------------------------------


2-1/3-1.--------1---1/3-1.---------- Gm7 F7 Bb
3----------0-3.---3-------3-2-3-----
4--------3----------------------3/5-

Bb F Gm Cm7 Dm
Gm
Mil y una historia me he inventado,para estar aqui,aqui a tu lado.Y no te
das cuenta
Cm7 F Bb F Gm
que yo no encuentro ya que hacer.Se que piensas que no he sido sincero,se
que piensas
Cm7 Dm Gm Cm7 F
que ya no tengo remedio,pero quien iba a decir,que sin ti no se vivir.
PUENTE:
Bdim Ebdim Gm Cm7 F F7
Y ahora que no estas aqui,me doy cuenta cuanta falta me haces.
CORO:
Bb F Gm Cm7
Si te he fallado,te pido perdon,de la unica forma que se,
D Gm Cm7 F
Abriendo las puertas de mi corazon,para cuando decidas volver.

Bb F Gm
Cm7
Porque nunca habra nadie que pueda llenar,el vacio que dejaste en
mi,
D Gm Cm7
F
Has cambiado mi vida,me has hecho crecer,es que no soy el mismo de
ayer
Gm F7 Bb
Un dia,es un siglo sin ti. [Punteo 1]
Bb F Gm Cm7 Dm
Mil y una historia me he inventado,para demostrarte que he cambiado,ya lo
que
Gm
paso,paso,rescatemos lo que nos unio.Que todos aprendemos de nuestros
errores

solo yo te pido que ahora me perdones.Peroquien iba a decir?Que dificil


es vivir.
[PUENTE+CORO+PUNTEO 2]
Bb F
Porque nunca habra nadie que pueda llenar... no soy el mismo de ayer
[PUNTEO 3]
Cm7 F
Cuanta falta me haceeees. [ CORO + CORO]

Defino acordes: Bdim=X2323X Ebdim=XX1212


Punteo 1: 1---------------------------------------
2---------------------------------------
3-----5-5/7-7/8-7/8/7-5---5/7-7/8-------
4-5-8-------------------8---------------
5-------------------------------------1-
6----------------------------------1-3--
PUNTEO 2:
1---------------------------6-4/6-10-8/10-13-10/8--10.10.10-8------5-6-
6/8.11-10-8-----
2--------------------------6---------------------11----------11-
8.8--------------11-8--
3----5.5/7-7.7-5-5-7---
5/7-----------------------------------------------------------10
4-5+8-----------8---8-
5.---------------------------------------------------------------

Punteo 3: 1-----------------------------------
2----6-6-------------6-6------------
3-5/7---7/8-7-5-5/7-----8-7-8-8/10--
4--------------8--------------------

Fuente original: LaCuerda


Colaborador original: Sergio Arnaez Muoz
[dinosam9@hotmail.com]