Está en la página 1de 25

http://www.taringa.net/post/info/1784863/Como-leer-tablaturas-de-guitarra.

html
Estas cansado e buscar punteos en lacuerda.net, www.tusacordes.com, etc.. y no e
ntender nada?

Aca te dejo este tutorial con el que aprendi yo..


EN CASO DE QUE SE CORRAN LAS TABLATURAS O NO SE ENTIENDA BIEN ENTREN EN LA FUENT
E
La parte que ms nos interesa aprender de la guitarra es el mstil. En el mstil se en
cuentran los trastes, que son las subdivisiones que tiene el mstil. La guitarra t
iene 6 cuerdas de distinto grosor, la ms fina y que est ms abajo, es la denominada
primera cuerda, la siguiente es la segunda, y as hasta llegar a la sexta cuerda q
ue es la ms gruesa.
......---\
Mi 1ra. ||---------|----------|----------|----------|---------|-- Cuerda mas fin
a (Primera)
Si 2da. ||---------|----------|----------|----------|---------|-Sol 3ra.||---------|----------|----------|----------|---------|-Re 4ta. ||---------|----------|----------|----------|---------|-La 5ta. ||---------|----------|----------|----------|---------|-Mi 6ta. ||--------@|----------|----------|----------|---------|-- Cuerda mas gru
esa (Sexta)
......___/1 Traste . 2 Traste . 3 Traste . 4 Traste . 5 Traste
MASTIL DE LA GUITARRA
Nota: @ es onde se debe poner el dedo. No en el medio, ni arriba de la barra de
metal, si no justo al lado.
-----------------------------------------------------------------

Lo primero que tienes que aprender para saber tocar tablaturas de guitarra o baj
o, es que las tablaturas son como si fueran partituras que estan hechas para la
guitarra, aunque no con toda la informacin que te daria una partitura, como por e
jemplo los tiempos en que tienes que tocar cada nota en el punteo de las cancion
es. Por lo cual tienes que haber escuchado antes las canciones de la cuales quie
res tocar usando las tablaturas. La tablatura esta compuesta de seis lneas horizo
ntales que representan las seis cuerdas de la guitarra, la lnea de arriba es la p
rimera cuerda y la ultima lnea es la sexta cuerda de la guitarra.
e------------------------------primera cuerda
B------------------------------segunda cuerda
G------------------------------tercera cuerda
D------------------------------cuarta cuerda
A------------------------------quinta cuerda
E------------------------------sexta cuerda

Dentro de esta lneas van a estar representados unos nmeros que representan el tras
te que debes de pulsar en el mastil de la guitarra.

Como ejemplo esta tablatura:


e----1------------------------B-----------------------------G-------3---------------------D----------5------------------A-----------------------------E-----------------------------Esto quiere decir que debes comenzar el punteo de guitarra pisando la cuerda pri
mera(e) en el traste 1, despus sigue la cuerda tercera(G) en el traste 3, despus s
igue la cuerda cuarta(D) en el traste 5; es facil, solo tienes que seguir los nme
ros y ya esta hecho el punteo. Hasta aqui facil.
NOTA: Un 0 en la tablatura indica que hay que tocar la cuerda al aire (sin pulsa
rla)

Cuando encuentres en las tablaturas unos nmeros encima de otros (acordes), los ti
enes que tocar al mismo tiempo y cada uno en su traste. Se trataria de un acorde
y se definiria como: dos o ms notas sonando al mismo tiempo.
Ejemplo de acorde:
e--2---------------------------primera cuerda
B--3---------------------------segunda cuerda
G----4-------------------------tercera cuerda
D------------------------------cuarta cuerda
A------------------------------quinta cuerda
E------------------------------sexta cuerda
Aqui hay dos notas una encima de otra, sin dejar un espacio. Esto lo tienes que
tocar al mismo tiempo, o sea la primera cuerda de la guitarra pisada en el trast
e 2 y la segunda cuerda pisada en el traste 3, presionas las dos cuerdas juntas
en el traste que te indica y las tocas al mismo tiempo y de ah pasa a la otra not
a que es la tercera cuerda en el traste 4.
Acordes de guitarra
Dom = cm
e----3--------------------------primera cuerda
B----4--------------------------segunda cuerda
G----5--------------------------tercera cuerda
D----5--------------------------cuarta cuerda
A----3--------------------------quinta cuerda
E-------------------------------sexta cuerda
Esto es un acorde. Arriba va el nombre del acorde y abajo como se ponen los dedo
s segn los nmeros, es facil y con la practica podrs dominarlos.
Acordes basicos para guitarra puestos en tablatura:

E5 F5 F#5 G5 G#5A5 A#5 B5 C5 C#5D5 D#5

|----------------------------------------------------------------------|
|--------------------------------------------------------------3-------|
|------9--------10--------------------2---3---4---5---6---7----2---8---|
|-2----9---3----10---4---5---6---7----2---3---4---5---6---7---0---8---|
|-2-or-7---3----8---4---5---6---7---0---1---2---3---4---5--------6---|
|-0--------1---------2---3---4---5-------------------------------------|
Acordes menores de guitarra
Em Fm Gm Am Bm Cm Dm
|-0---1---3---0---2---3---1-|
|-0---1---3---1---3---4---3-|
|-0---1---3---2---4---5---2-|
|-2---3---0---2---4---5---0-|
|-2---3-------0-------------|
|-0---1---------------------|

Definicion del tabulado para guitarra


Los siguientes simbolos son los mas frecuentes en las ttablaturas para guitarra,
en algunos puede que estos no signifiquen lo mismo, de todas maneras es muy usu
al que, en estos casos, la persona que lo ha hecho explique lo que realmente qui
eren significar.
Se ponen en ingls, porque asi es como mayormente se conocen.
) = Bend
/ = Slide
~~ = Vibrato
h = Hammer on
p = Pulloff
PM = Palm mute
x\x = Pick scrape (rasgar con la pua)
NH = Armonico natural (Natural armonic)
+ = Tremelo Pick
) = Unison Bend
| = Ghost Bend (Bend fantasma)
|\ = Ghost Bend and release (Bend fantasma y soltar)
* = Retroalimentacion descontrolada (Uncontrolled feedback)

BEND:
Se toca la primera nota y luego se estira la cuerda con el dedo que presiona el
mstil hasta alcanzar un sonido de un medio tono, un tono completo o segun se indi
que.
E-|------------------|
B-|----5)------------|
G-|------------------|
D-|------------------|
A-|------------------|
E-|------------------|

HARMONICO NATURAL:
Se toca la cuerda ligeramente sin llegar a presionar con la mano que toca el msti
l en el traste que se indique y despues es tocada la nota.

HARMONICO ARTIFICIAL (PINCH):


Despues de que la nota es tocada normalmente, se toca ligeramente con la punta d
e el dedo de la mano que hace el pick , sin llegar a apagar el sonido de la nota
(una octava ms arriba de la nota tocada originalmente) para producir el sonido d
e un harmnico. (pinch) A.H.
E-|----9-------------|
B-|------------------|
G-|------------------|
D-|------------------|
A-|------------------|
E-|------------------|

PALM MUTE:
La nota es ligeramente apagada con el filo de la mano que hace el pick mientras
esta esta tocando las notas.
E-|------------------|
B-|------------------|
G-|------------------|
D-|------------------|
A-|------------------|
E-|--0--0--0--0------|

SLIDE:
Se toca la nota primera nota y se corre el dedo hasta un trasto ms arriba o ms aba
jo segun sea el caso.La segunda nota no es tocada con la mano que hace el pick.
E-|------------------|
B-|----5/8-----------|
G-|------------------|
D-|------------------|

A-|------------------|
E-|------------------|

SLIDE PICK:
Es lo mismo que el slide solo que la segunda nota si es tocada.
E-|------------------|
B-|----5/8-----------|
G-|------------------|
D-|------------------|
A-|------------------|
E-|------------------|

SLIDE LARGO:
Se hace el pick durante el slide hasta alcanzar la nota deseada.
E-|------------------|
B-|----/5------------|
G-|------------------|
D-|------------------|
A-|------------------|
E-|------------------|

SLIDE OFF:
Es el slide largo solo que hacia abajo.
E-|------------------|
B-|----5/----\5------|
G-|------------------|
D-|------------------|
A-|------------------|
E-|------------------|

PICK SLIDE:
Con el filo de el pick (pua) se presiona sobre los trastos y se hace el slide.
E-|------------------|
B-|----x\------------|
G-|------------------|
D-|------------------|
A-|------------------|
E-|------------------|

HAMMER-ON:
Se toca la primera nota y la segunda se hace sonar por medio de un tap (presiona

r el trasto de la guitarra y lograr un sonido sin necesidad de hacer un punteo)


la segunda nota.
E-|------------------|
B-|----5h7-----------|
G-|------------------|
D-|------------------|
A-|------------------|
E-|------------------|

PULL-OFF:
Se colocan los dos dedos en las notas que se van a tocar, se toca la primera not
a y se deja de presionar esta para dejar sonar la nota de ms abajo. La segunda no
ta no es tocada con la mano que hace el pick (punteo).
E-|------------------|
B-|----7p5-----------|
G-|------------------|
D-|------------------|
A-|------------------|
E-|------------------|

TREMOLO PICKING:
La nota es tocada con la mano que hace el pick hacia arriba y hacia abajo lo ms rp
ido que sea posible.
E-|------------------|
B-|----5-------------|
G-|----/-------------|
D-|----/-------------|
A-|----/-------------|
E-|------------------|

VIBRATO:
Se toca la nota y se hace vibrar con el vibrato o palanca de la guitarra, o bien
haciendo un bend lo ms rpido posible hacia arriba y hacia abajo.
E-|------------------|
B-|----5~------------|
G-|------------------|
D-|------------------|
A-|------------------|
E-|------------------|

Esto no es un curso, simplemente es lo mas basico para aprender a leer tabs de g


uitarra. Recomiendo a los que empiezan a tocar la guitarra, que antes de intenta
r tocar las canciones de sus grupos preferidos, que lo mejor es aprender y pract
icar con acordes varios dias o semanas, hasta coger cierta soltura en los dedos
de las manos. Con la practica os resultara mas facil.

****************************************************************************
Aprende a tocar la guitarra con estas tablaturas
Aprende a tocar la guitarra con estas tablaturas
Hola, buenas tardes... si tenes guitarra y siempre quisiste aunque sea tocar un
par de notas, mira este post, te va a ayudar mucho
No te garantizo que toques como Slash, pero te va a facilitar el camino
Sirve tanto como para guitarras
Criollas, acsticas y elctricas
Tabs
guitarra
Primero y principal, ac tenes una "gua" de como leer e interpretar tablaturas
Tetris
En primer lugar, nos interesa saber el nombre de las partes que componen el mast
il de la guitarra:
TRASTES:
Metallica
En el mstil se encuentran los trastes, que son las divisiones en que se divide.
CUERDAS:
acustica
La guitarra tiene 6 cuerdas de distinto grosor, la ms fina que esta abajo, es la
denominada 1 cuerda, la siguiente es la 2, y as hasta la 6 que es la ms gruesa.
Mastil de la guitarra
......--Mi 1ra. ||---------|----------|----------|----------|---------|Si 2da. ||---------|----------|----------|----------|---------|Sol 3ra.||---------|----------|----------|----------|---------|Re 4ta. ||---------|----------|----------|----------|---------|La 5ta. ||---------|----------|----------|----------|---------|Mi 6ta. ||---------|----------|----------|----------|---------|......___/1 Traste . 2 Traste . 3 Traste . 4 Traste . 5 Traste

La tablatura se compone de seis lneas horizontales que representan las seis cuerd
as de la guitarra, la lnea de arriba es la 1 cuerda y la ltima lnea es la 6:
e--------------------------primera cuerda
B-------------------------segunda cuerda
G-------------------------tercera cuerda

D------------------------cuarta cuerda
A------------------------quinta cuerda
E------------------------sexta cuerda
En estas lneas estaran unos nmeros que muestran el traste que se tiene que pulsar:
e----1-------------------B------------------------G-------3----------------D----------5-------------A------------------------E------------------------Esto quiere decir que debes comenzar el punteo de guitarra pulsando la cuerda pr
imera(e) en el traste 1, despus sigue la cuerda tercera(G) en el traste 3, despus
sigues la cuerda cuarta(D) en el traste 5.
Si encuentras un 0 en la tablatura te esta indicando que la cuerda hay que tocar
la sin pulsarla.

Cuando en la tablatura hay unos nmeros sobre otros, los tienes que tocar al mismo
tiempo y cada uno en su traste. Esto se llamaria acorde y se define como: dos o
ms notas sonando al mismo tiempo.
e--2-----------------------primera cuerda
B--3-----------------------segunda cuerda
G--------------------------tercera cuerda
D--------------------------cuarta cuerda
A--------------------------quinta cuerda
E--------------------------sexta cuerda
En la tablatura de arriba hay dos notas una encima de otra, sin dejar espacio. E
sto indica que hay que tocarlas a la vez. La primera cuerda de la guitarra pisad
a en el traste 2 y la segunda cuerda pisada en el traste 3, presionas las dos cu
erdas a la vez en sus trastes correspondientes y las tocas al mismo tiempo.
aprender
Bueno, con ese tutorial, tenes las bases suficientes como para tocar estas tabla
turas...
Nota 1: La mayora son de rock, heavy metal, hard rock, metal, etc. porque es mi g
usto musical, pero hay variadas y de diferentes dificultades.
Nota 2: El orden de las tabs no indica la dificultad, sino el orden en que las r
ecopil.
Nota 3: Voy a poner los videos de las canciones para que sepas el ritmo.
acdc
Smoke on the water

Esta es "la tab base". Con esta debes empezar, es muy facil. La podes hacer con

cualquier cuerda, pero queda mejor con la 6


e|-------------------------------------------------||
B|-------------------------------------------------||
G|-------------------------------------------------||
D|-0-3-5---0-3-6-5---0-3-5---3-0----------||
A|-------------------------------------------------||
E|-------------------------------------------------||
electrica
Himno de la alegra

Esta tambin es facil, aunque ya emplea el uso de dos cuerdas


e.------------------------------------------------B.-0--0--1--3--3--1--0--------------0--0----------G.----------------------2--0--0--2--------2--2----D.------------------------------------------------A.------------------------------------------------E.------------------------------------------------e.------------------------------------------------B.-0--0--1--3--3--1--0--------------0-------------G.----------------------2--0--0--2------2--0--0---D.------------------------------------------------A.------------------------------------------------E.------------------------------------------------e.------------------------------------------------B.-----0------0--1--0------0--1--0----------------G.--2----0--2---------0--2----------2--0--2-------D.------------------------------------------0-----A.------------------------------------------------E.------------------------------------------------e.------------------------------------------------B.-0--0--1--3--3--1--0------------0---------------G.---------------------2--0--0--2---2--0--0-------D.------------------------------------------------A.------------------------------------------------notas
Tetris

Si si, la del videojuego


e|--0-----------------0-------------0--------|
B|----0-1-3-1-0-----1---3-1-0-0-1-3---1------|
G|--------------2-2---------------------2-2--|

D|-------------------------------------------|
A|-------------------------------------------|
E|-------------------------------------------|
e|----1-5-3-1-0---0-------------0------------|
B|--3-----------1---3-1-0-0-1-3---1----------|
G|----------------------------------2-2------|
D|-------------------------------------------|
A|-------------------------------------------|
E|-------------------------------------------|
de
Indiana Jones

Esta es un poco difcil, pero con prctica sale


|----------------------------1-------------0----------------0-1-----|
|-------1------------------0--------0-1--3------------1---3---------|
|-----0----------------0-2--------2-----------------0-----------0-0-|
|-2-3-------0-2-3------------------------------2-3------------------|
|-------------------------------------------------------------------|
|-------------------------------------------------------------------|
|-0------0------0------0--------------------------------------------|
|---3------3------3------3------------------------------------------|
|------0------0------0----------------------------------------------|
|--------------------------------------------2----------------------|
|-------------------------------------------------------------------|
|---------------------------0--3-1----1--0-3-------0--3-1----1--0-3-|
|-------------------1-------1-------1----------------------------3--|
|-------------------------------------4-4-4-------4-------4--4-2-3--|
|---------------------3-3-3---3-3-3---------1-1-1---1-1-1--------0--|
|--------------2-------------------------------------------------0--|
|----------------------------------------------------------------X--|
|-1----1-1-0-3---1-3---------------------------------------------0--|
criolla
Painted Black

e|-------5----------------------------------B|-5-7-8---8-7-5-5---5-7----4-5-7--5-4---4--G|-----------------8------6------------6----Riff 1
e|-------5--------------------B|-5-7-8---8-7-5-5---5-7-5-4--G|-----------------8----------faciles
Stars Wars (marcha imperial)

e|-----------------------------|-----------------------------b|-----------------------------|--15-15-15-16-------16-------g|--12-12-12----15-12----15-12-|--------------15-------15----d|-----------13-------13-------|-----------------16-------12-a|-----------------------------|-----------------------------E|-----------------------------|-----------------------------e|-----------------------------|-----------------------b|--19-------19-18-17-15-13-12-|-----14-13-12-11-10-11-g|-----12-12-------------------|--13-------------------d|-----------------------------|-----------------------a|-----------------------------|-----------------------E|-----------------------------|-----------------------e|--------------------------b|--16----------------------g|-----------15-12----15-12-d|-----16-14-------13-------a|--------------------------E|--------------------------gn'r
Decime boca... (en realidad es "Yo te quiero dar" de la mosca, pero es mas diver
tido saber que estas tocando una cancin de cancha )

|------7-9-9-12-10-9-7-----9--------|------7-9-9-12-10-9-7----14-10-----||
|---10------------------10---10-----|---10-----------------10-------12--||
|-9-----------------------------9---|-9---------------------------------||
|-----------------------------------|-----------------------------------||
|-----------------------------------|-----------------------------------||
|-----------------------------------|-----------------------------------||
|-------9-10-10-14-12-10-9--7-10-9--|-12-10-9-7---9-7---10-9-7----------||
|----12-----------------------------|-----------10-------------10-9-10--||
|-11--------------------------------|-----------------------------------||
|-----------------------------------|-----------------------------------||
|-----------------------------------|-----------------------------------||
|-----------------------------------|-----------------------------------||
|-------9-10-10-14-12-10-9--7-10-9--|-12-10-9-7---9-7---10-9-7----------||
|----12-----------------------------|-----------10-------------10-9-10--||
|-11--------------------------------|-----------------------------------||
|-----------------------------------|-----------------------------------||
|-----------------------------------|-----------------------------------||
|-----------------------------------|-----------------------------------||
Aprende a tocar la guitarra con estas tablaturas
Yo te quiero River Plate ("Veni Raquel"

E--------------------------------------------------------------------------------------A--------------------------------------------------------------------------------------D--------------------------------------------------------------------------------------G--2-2-2-2--3-2---------------2--3-2---------0-0-------0-2---------2-2-3-2-------------B---------------3-2-0---0-2-3--------3-3-2-------3-2-3-------0-2-3---------3-2-0
--------e--------------------------------------------------------------------------------------E--------------------------------------------------------------------------------------A--------------------------------------------------------------------------------------D--------------------------------------------------------------------------------------G--2-2-2--3-2---------------5--5-3-2-3-0----3-0--3-0---2-----2-----2---3-2-0-----------B---------------3-0---0-2-3--------------------0-----0---3-0---3-0-----------3-2
-0------e--------------------------------------------------------------------------------------Tabs
Oh Susana.
Ac hay dos versiones, elijan cul les gusta ms
Esta es un poco rpida.

1]-----------------0-------------------------2]--------0--3--3----3--0--------0--0--------3]--0--2-------------------0--2--------2--0--2
4]-------------------------------------------5]-------------------------------------------6]-------------------------------------------1]-----------------0--------------------------2]--------0--3--3-----3--0--------0--0--------3]--0--2--------------------0--2--------2--2--0
4]--------------------------------------------5]--------------------------------------------6]--------------------------------------------1]--------0--0---0--------------2]--1--1------------3--3--0--0--3]------------------------------2
4]-------------------------------

5]------------------------------6]------------------------------1]-----------------0--------------------------2]--------0--3--3-----3--0--------0--0--------3]--0--2--------------------0--2--------2--2--0
4]--------------------------------------------5]--------------------------------------------6]--------------------------------------------Oh Susana 2
e|------0--3-3--5-3-0------0-0--------|------0--3-3--5-3-0------0-0--------|
B|--1-3----------------1-3-----3-1-3--|--1-3----------------1-3-----3-3-1--|
G|------------------------------------|------------------------------------| x2
D|------------------------------------|------------------------------------|
A|------------------------------------|------------------------------------|
E|------------------------------------|------------------------------------|
e|----1---1---5--5----5-3-3-0---------|------0--3-3--5-3-0------0-0--------|
B|----------------------------1-3~----|--1-3----------------1-3-----3-3-1--|
G|------------------------------------|------------------------------------|
D|------------------------------------|------------------------------------|
A|------------------------------------|------------------------------------|
E|------------------------------------|------------------------------------|
guitarra
Himno de Francia

e-------------------------10--7---------7--------7/8--------------------B-----------8--8--10--10---------8---8-----8----------10--7--7/8--------G--7--7--7------------------------------------9-------------------------D-----------------------------------------------------------------------A-----------------------------------------------------------------------E-----------------------------------------------------------------------e---------7--7--7--7--8--7--7-----------7--8--8--8--8--10--8--7---------B--8--10-----------------------10---10----------------------------------G-----------------------------------------------------------------------D-----------------------------------------------------------------------A-----------------------------------------------------------------------E-----------------------------------------------------------------------e--10--10--10--7-----10--7---------------5--5--7--7/8--5-----5----------B-----------------8---------8---------7-------------------7----8--6-----G------------------------------7---7------------------------------------D-----------------------------------------------------------------------A-----------------------------------------------------------------------E------------------------------------------------------------------------

e-----------------------------------------------8--10-------------------B--5--8--8--8--7--8--8/10---10--10--11--11--11---------10---------------G-----------------------------------------------------------------------D-----------------------------------------------------------------------A-----------------------------------------------------------------------E-----------------------------------------------------------------------Coro:
e---------------------------------B--11--10--8---8--11--10--8--8--7-G---------------------------------D---------------------------------A---------------------------------E----------------------------------

*
*
*
*
*
*

e--------------10--10--7----------B-----------8-------------8--8/10-G--7--7--7------------------------D---------------------------------A---------------------------------E----------------------------------

e--------------10--10--7------------------------------------------------B-----------8-------------8--8/10------7--8---10--8--10--12---13--------G--7--7--7--------------------------7-----------------------------------D-----------------------------------------------------------------------A-----------------------------------------------------------------------E-----------------------------------------------------------------------e------10--12-------12--10---7--8---------------------------------------B--13----------10------------------10--8--------------------------------G-----------------------------------------------------------------------D-----------------------------------------------------------------------A-----------------------------------------------------------------------E-----------------------------------------------------------------------Tetris
Navidad

e-0-0-0--0-0-0--0-3-----0------------b-------------------1-3--------------g------------------------------------d------------------------------------a------------------------------------e------------------------------------e-1-1-1--1-0-0--0-----0---3----------b-----------------3-3---3------------g------------------------------------d------------------------------------a------------------------------------e------------------------------------e-0-0-0--0-0-0--0-3-----0------------b-------------------1-3--------------g------------------------------------d------------------------------------a------------------------------------e------------------------------------e-1-1-1--1-0-0--3-3-1-----------------

b---------------------3-1------------g------------------------------------d------------------------------------a------------------------------------e------------------------------------Metallica
Un poco de amor francs

G|-8-8-5------------|-8-8-5------------|-5-5-----5-5--------5---5--7-7-|
D|-------8--5-6-5-6-|-------8--5-6-5-6-|-----5-------5-8--8---8--------|
A|------------------|------------------|-------5-----------------------|
E|------------------|------------------|-------------------------------|
Verso/Estribillo/Riff del Solo de Guitarra y Saxo:
G|----------------------------------------------|
D|----------------------------------------------|
A|-3--3(x12)-------------5--5(x12)--------------|
E|------------5--5(x12)-------------3--3(x12)---|
Puente:
G|------|----------|------|----|-----------|
D|------|----------|------|----|-----------|
A|------|----------|------|----|-----------|
E|-(5)--|-(5)------|-(1)--|-3--|-3(x9)-----|
Final:
G|------------|
D|------------|
A|-------(2)--|
E|-5-1-3------|
acustica
Highway To Hell

esta es bastante difcil si sos principiante (como yo )


e|---------------------------------------------------------------------------------------------||
B|--------2--2--2--------3--3--3--------3--3--3--------3--3--3--------3--------2
--2--||
G|--------2--2--2--------2--2--0--------2--2--0--------2--2--0--------0--------2
--2--||
D|--------2--2--2--------0--0--0--------0--0--0--------0--0--0--------0--------2
--2--||
A|--------0--0--0--------x--x--x---------x--x--x---------x--x--x--------x-------0--0--||
E|-------------------------2--2--3---------2--2--3--------2--2--3--------3--------------||
aprender

Back In Black
IDEM con la anterior

e|-----------------------------------------------------3/0-----------------||
B|------------------3--3--3---------------------------------3/0----------||
G|------------------2--2--2--------2--2--2----------------------2/0--||
D|--------2--------0--0--0--------2--2--2-------------------------------||
A|--------2-------------------------0--0--0-------------------------------||
E|--------0------------------------------------------------------------------||
e|-------------------------------------------------------------------------------------||
B|------------------3--3--3----------------------------------------------------------||
G|------------------2--2--2--------2--2--2-----------------------------------------||
D|--------2--------0--0--0--------2--2--2-----------------------------------------||
A|--------2-------------------------0--0--0---------2-----2-----2-----2----------||
E|--------0-----------------------------------------------4-----5-----6-----7/0---||
acdc
Thunderstruck

Esta es bien rpida, as que primero tenes que ir "ganando" velocidad con los dedos
e|------------------------------------------------------------------------------------------||
B|0-4-0-7-0-4-0-7-0-4-0-7-0-4-0-7-0-4-0-7-0-4-0-7-0-4-0-7-0-4-0-7-0--||
G|------------------------------------------------------------------------------------------||
D|------------------------------------------------------------------------------------------||
A|------------------------------------------------------------------------------------------||
E|------------------------------------------------------------------------------------------||
e|------------------------------------------------------------------------------------------||
B|0-5-0-8-0-5-0-8-0-5-0-8-0-5-0-8-0-5-0-8-0-5-0-8-0-5-0-8-0-5-0-8-0--||
G|------------------------------------------------------------------------------------------||
D|------------------------------------------------------------------------------------------||
A|------------------------------------------------------------------------------------------||
E|------------------------------------------------------------------------------------------||

e|-------------------------------------------------------|------------------------------------------------------||
B|-0-12-0-10-0-9-0-10-0-9-0-7-0-9-0-7-0---|-0-12-0-10-0-9-0-10-0-9-0-7-0-9-0-7-0
----||
G|-------------------------------------------------------|------------------------------------------------------||
D|-------------------------------------------------------|------------------------------------------------------||
A|-------------------------------------------------------|------------------------------------------------------||
E|-------------------------------------------------------|------------------------------------------------------||
e|-----------------------------------------------------------|------------------------------||
B|-0-12-0-10-0-9-0-10-0-9-0-7-0-9-0-7-0-5-0-|-4-0-5-0-4-0-2-0-4-0-2--||
G|-----------------------------------------------------------|------------------------------||
D|-----------------------------------------------------------|------------------------------||
A|-----------------------------------------------------------|------------------------------||
E|-----------------------------------------------------------|------------------------------||
electrica
Sweet child o mine

Difcil de hacer con la criolla, debido a los espacios.


e|--------------15----14---------|---------------15----14-------|
B|-----15-------------------------|-----15------------------------|
G|--------14-12----14----14----|--------14-12----14----14---|
D|--12----------------------------|--12---------------------------|
A|---------------------------------|--------------------------------|
E|---------------------------------|--------------------------------|
e|--------------15----14---------|---------------15----14---------|
B|-----15-------------------------|-----15--------------------------|
G|--------14-12----14----14----|--------14-12----14----14-----|
D|--14----------------------------|--14-----------------------------|
A|---------------------------------|----------------------------------|
E|---------------------------------|----------------------------------|
e|--------------15----14------------|----------------15----14------|
B|-----15----------------------------|-----15------------------------|
G|--12----14-12----14----14-----|-12-----14-12----14----14--|
D|-----------------------------------|---------------------------------|
A|-----------------------------------|---------------------------------|
E|-----------------------------------|---------------------------------|
e|--------------15----14---------|---------------15----14-------|
B|-----15-------------------------|-----15------------------------|
G|--------14-12----14----14----|--------14-12----14----14---|
D|--12----------------------------|--12---------------------------|
A|---------------------------------|--------------------------------|

E|---------------------------------|--------------------------------|
notas
One

e|-----------------------------------------------------------------------------||
B|-----------------------------------------------------------------------------||
G|--------------------------------------------------------------------------0--|
|
D|-----4-----0---------4-----0-------------4-----0--------4-----0---------||
A|-2-----2------------------------------2-----2------------------------------||
E|-------------------3-----3------------------------------3-----3------------||
e|-------------------------------------------------------------------------||
B|-------------------------------------------------------------------------||
G|-------------------------------------------------------------------------||
D|-----4------0-----------4-----0--------4-----0----------------------||
A|-2-----2------------0-----0--------------------------------2-----2--||
E|--------------------------------------3-----3-----------0-----2-------||
de
Love me do

1_--1-0-------------1-0-------------1-0-----------------------------2_------3---------------3----------------3----------1-0-------------3_--------0-0-0-0--------0-0-0-0----------0-0-0-------0-0-0-0-0-0- (la ultima pa


rte va 3 veces)
criolla
Los Simpsons

1_----0-2-5-3-0-------------------------------------2_--1------------1------------------------0-2-2-2-33_------------------2---------0--------0------------4_---------------------4-4-4----4-4-4--------------faciles
Seven Nation Army

|-----------------------------|
|-----------------------------|
|-----------------------------| x12

|-----------------------------|
|-----------------------------|
|---7---7--10--7--5--3--2-----|
|-----------------------------|
|-----------------------------|
|-----------------------------|
|-----------------------------|
|---0-0-0-0-0-0-1-1-1-1-1-1---|
|---0-0-0-0-0-0-1-1-1-1-1-1---|
|------------------------------------------------------|
|------------------------------------------------------|
|------------------------------------------------------|
|------------------------------------------------------|
|------------------------------------------------------|
|---9---9--12--9--7--5--4---9---9--12--9--7--5--7--5--4|
|------------------------------------------------------|
|------------------------------------------------------|
|------------------------------------------------------|
|------------------------------------------------------|
|------------------------------------------------------|
|---9---9--12--9--7--5--4---9---9--12--9--7--5--7--5--4|
|-----------------------------|
|-----------------------------|
|-----------------------------|
|-----------------------------|
|---0-0-0-0-0-0-1-1-1-1-1-1---|
|---0-0-0-0-0-0-1-1-1-1-1-1---|
|-----------------------------|
|-----------------------------|
|-----------------------------| x12
|-----------------------------|
|-----------------------------|
|---7---7--10--7--5--3--2-----|
|-----------------------------|
|-----------------------------|
|-----------------------------|
|-----------------------------|
|---0-0-0-0-0-0-1-1-1-1-1-1---|
|---0-0-0-0-0-0-1-1-1-1-1-1---|
|------------------------------------------------------|
|------------------------------------------------------|
|------------------------------------------------------|
|------------------------------------------------------|
|------------------------------------------------------|
|---9---9--12--9--7--5--4---9---9--12--9--7--5--7--5--4|
|------------------------------------------------------|
|------------------------------------------------------|
|------------------------------------------------------|
|------------------------------------------------------|
|------------------------------------------------------|
|---9---9--12--9--7--5--4---9---9--12--9--7--5--7--5--4|

|---9---9--12--9--7--5--4---9---9--12--9--7--5--7--5--4|
|------------------------------------------------------|
|------------------------------------------------------|
|------------------------------------------------------|
|------------------------------------------------------|
|------------------------------------------------------|
|---9---9--12--9--7--5--4---9---9--12--9--7--5--7--5--4|
|------------------------------------------------------|
|------------------------------------------------------|
|------------------------------------------------------|
|------------------------------------------------------|
|------------------------------------------------------|
|-----------------------------|
|-----------------------------|
|-----------------------------| x12
|-----------------------------|
|-----------------------------|
|---7---7--10--7--5--3--2-----|
|-----------------------------|
|-----------------------------|
|-----------------------------|
|-----------------------------|
|---0-0-0-0-0-0-1-1-1-1-1-1---|
|---0-0-0-0-0-0-1-1-1-1-1-1---|
|------------------------------------------------------|
|------------------------------------------------------|
|------------------------------------------------------|
|------------------------------------------------------|
|------------------------------------------------------|
|---9---9--12--9--7--5--4---9---9--12--9--7--5--7--5--4|
|------------------------------------------------------|
|------------------------------------------------------|
|------------------------------------------------------|
|------------------------------------------------------|
|------------------------------------------------------|
|---9---9--12--9--7--5--4---9---9--12--9--7--5--7--5--4|
gn'r
Bad Romance
Se... es rara, pero est buena (la cancin)

e-----------------------------------------------------------|
B-----------------------------------------------------------|
G-----------------------------------------------------------|
D---5--7--9--5--10---10-10-9-7--5--5--7---9-9-9-9--7--5-----| X2
A-----------------------------------------------------------|
E-----------------------------------------------------------|

e--------------------------------------------------------------------|
B--------------------------------------------------------------------|
G--------------------------------------------------------------------|
D--------------------------------------------------------------------|
A----------------8-7-8-7-------8-7-8-7------8-7-8-7------2-2-2-2-2-2-|
E----------5-5------------5-5-----------5-5--------------0-3-0-3-0-3-|
e---------------------------------------------------------------------|
B---------------------------------------------------------------------|
G---------------------------------------------------------------------|
D---5-7-5-7-5-5-7/9-7-5-7-------5-7--10-9-7------5-7------------------|
A---------------------------5-7--------------5-7----------------------|
E---------------------------------------------------------------------|
e-------------------------------------------------------------------|
B---10-10-10-10-8-8-8-----------------------------------------------|
G---------------------7-7-7-9--9-9-9--12-9-7-7/5--------------------|
D-------------------------------------------------------------------|
A-------------------------------------------------------------------|
E-------------------------------------------------------------------|
and this again after
e------------------------------------------------------------|
B------------------------------------------------------------|
G------------------------------------------------------------|
D---5--7--9--5--10---10-10-9-7--5--5--7---9-9-9-9--7--5------|
A------------------------------------------------------------|
E------------------------------------------------------------|
Aprende a tocar la guitarra con estas tablaturas
Bueno... por el momento son esas... algunas son muy fciles, otras intermedias, y
otras ya son difciles, pero con prctica se sacan...
Espero que les sea de ayuda este post, y que realmente puedan tocar algo!
**************************************************************
Canciones para guitarra (faciles)
Bueno amiwos
soi nuevo en esto y queria demostrar mi talento asiendo post
Bueno el post trata de canciones faciles para tocar en guitarra
bueno para el q no sepa lo q es una tablatura......
Las tablaturas para guitarra son como una partitura que muestra la posicin de los
dedos en la guitarra, pero que no da datos de tonos ni duracin de las notas. Asi
que para tocar una cancin a traves de una tablatura, la debes haber escuchado an
tes para conocer el ritmo y sonido de la guitarra.
Tambien te puede interesar:
Como afinar una guitarra
Tocar escalas de guitarra
En primer lugar, nos interesa saber el nombre de las partes que componen el mast
il de la guitarra:

TRASTES: En el mstil se encuentran los trastes, que son las divisiones en que se
divide.
CUERDAS: La guitarra tiene 6 cuerdas de distinto grosor, la ms fina que esta abaj
o, es la denominada 1 cuerda, la siguiente es la 2 , y as hasta la 6 que es la ms grue
sa.
Mastil de la guitarra
......---\
Mi 1ra. ||---------|----------|----------|----------|---------|Si 2da. ||---------|----------|----------|----------|---------|Sol 3ra.||---------|----------|----------|----------|---------|Re 4ta. ||---------|----------|----------|----------|---------|La 5ta. ||---------|----------|----------|----------|---------|Mi 6ta. ||---------|----------|----------|----------|---------|......___/1 Traste . 2 Traste . 3 Traste . 4 Traste . 5 Traste

La tablatura se compone de seis lneas horizontales que representan las seis cuerd
as de la guitarra, la lnea de arriba es la 1 cuerda y la ltima lnea es la 6 :
e------------------------------primera cuerda
B-----------------------------segunda cuerda
G-----------------------------tercera cuerda
D-----------------------------cuarta cuerda
A-----------------------------quinta cuerda
E-----------------------------sexta cuerda

En estas lneas estaran unos nmeros que muestran el traste que se tiene que pulsar:
e----1------------------------B-----------------------------G-------3---------------------D----------5------------------A-----------------------------E-----------------------------Esto quiere decir que debes comenzar el punteo de guitarra pulsando la cuerda pr
imera(e) en el traste 1, despus sigue la cuerda tercera(G) en el traste 3, despus
sigues la cuerda cuarta(D) en el traste 5.
Si encuentras un 0 en la tablatura te esta indicando que la cuerda hay que tocar
la sin pulsarla.

Cuando en la tablatura hay unos nmeros sobre otros, los tienes que tocar al mismo
tiempo y cada uno en su traste. Esto se llamaria acorde y se define como: dos o
ms notas sonando al mismo tiempo.
e--2---------------------------primera cuerda
B--3---------------------------segunda cuerda
G------------------------------tercera cuerda
D------------------------------cuarta cuerda
A------------------------------quinta cuerda

E------------------------------sexta cuerda
En la tablatura de arriba hay dos notas una encima de otra, sin dejar espacio. E
sto indica que hay que tocarlas a la vez. La primera cuerda de la guitarra pisad
a en el traste 2 y la segunda cuerda pisada en el traste 3, presionas las dos cu
erdas a la vez en sus trastes correspondientes y las tocas al mismo tiempo.

Bueno las canciones !!

INSPECTOR GADGET suena bien


1|-----------------------------------------2|---------------------------------------3-2
3|----------------------------------4-3----4|------0-2-4--0-3---2-0------0-2-4--------5|--2-4------------4-----2-4---------------6|------------------------------------------

HUMO SOBRE EL AGUA de Deep Purple muy facillll


La Pueden hacer con cualquier cuerda
|-0-3-5---0-3-6-5---0-3-5-3-0-------yo akonsejo tocar 2 cuerdas a la ves suena mas power...

El Himno a la Alegria! esta bien bueno

||-0--0--1--3-|-3--1--0----|----------0-|-0----------||
||------------|----------3-|-1--1--3----|------3-----||
||------------|------------|------------|------------||
||------------|------------|------------|------------||
||------------|------------|------------|------------||
||------------|------------|------------|------------||
||-0--0--1--3-|-3--1--0----|----------0-|------------||
||------------|----------3-|-1--1--3----|-3----1-----||
||------------|------------|------------|------------||
||------------|------------|------------|------------||
||------------|------------|------------|------------||
||------------|------------|------------|------------||
||-----0-----|-0-1--0-----|-0-10------|------------||
||-3-----1--3-|--------1--3|---------3--|13---------||
||------------|------------|------------|---------0--||
||------------|------------|------------|------------||
||------------|------------|------------|------------||

||------------|------------|------------|------------||
||-0-0-1-3-|-3--1--0----|----------0-|------------||
||------------|----------3-|-1--1--3----|-3---1------||
||------------|------------|------------|------------||
||------------|------------|------------|------------||
||------------|------------|------------|------------||
||------------|------------|------------|------------||

FLACA de Andres Calamaro (intro)


e-----------------------------------------------------------------B--3-----------4------------5-----------3-1---3-----------4-------G---4-2-0-2-4----4-2-0-2-4----4-2-0-2-4-----4---4-2-0-2-4---4-2-0-D-----------------------------------------------------------------A-----------------------------------------------------------------E------------------------------------------------------------------

El Feliz Cumpleaos .......


e----------1-0---------3-1-----8-5-1-1--0---6-6-5-1-3--1B-1-1-3--1-----1-1-3-1-----1-1------------3--------------

la cucaracha!!!
e--------1-5--------1-5--1-1-0-0----------------------B--1-1-1------1-1-1--------------3-3-1----------------G-----------------------------------------------------D-----------------------------------------------------A-----------------------------------------------------E-----------------------------------------------------e--------0-3--------0-3--8-10-8-6-5-3-1---------------B--1-1-1------1-1-1-----------------------------------G-----------------------------------------------------D-----------------------------------------------------A-----------------------------------------------------E-----------------------------------------------------e------1-1-5-5-8-5--8-10-8-6-5-8-6-3-------------------

B--1-1------------------------------------------------G-----------------------------------------------------D-----------------------------------------------------A-----------------------------------------------------E-----------------------------------------------------e------0-0-3-3-6-3--8-10-8-6-5-3-1--------------------B--1-1------------------------------------------------G-----------------------------------------------------D-----------------------------------------------------A-----------------------------------------------------E------------------------------------------------------

REDEMPTION SONG
by Bob Marley
----------------|----------------|--------------------|------------|
----------------|----------------|--------------------|------------|
----------------|----------------|--------------------|------------|
----------------|------2---O-----|--------------O-----|------------|
------O---2-----|--3-----------2-|------O---2-------2-|--3---O-----|
--3-----------3-|----------------|--3-----------------|----------3-|
----------------|----------------|----------------|------------|
----------------|----------------|----------------|------------|
----------------|----------------|----------------|------------|
----------------|------2---O-----|--------------O-|------------|
------O---2-----|--3-----------2-|------O---2-----|--3---O-----|
--3-----------3-|----------------|--3-------------|----------3-|

he aki unas paginas donde pueden hay muxas tablaturas


http://www.ultimate-guitar.com/
http://www.guitaretab.com

Bueno amigos...
eso es todo por hoi las canciones
estan bien buenas y suenan muy bien
bueno luego pondre mas
espero q valoren el esfuerzo...
espero unos puntitos
By MatizGraf
Fuerza Chile!!!!

También podría gustarte