Está en la página 1de 4

Soda Stereo - Tratame Suavemente tab

"Tratame Suavemente (Versin de El Ultimo Concierto)" por Soda Stereo


Transcrito y descifrado por: Salvador Jose Quezada Mejia:
Una cosa antes de empezar. Yo descifre esto entonces copienlo si quieren
pero denme el maldito credito no hay nada de malo en eso. Esta es mi
primera
transcripcion y trabaje horas descubriendo que carajo estaba tocando
Gustavo
Cerati en el Ultimo Concierto, mas porque todas las otras transcripciones
no
coincidian con la forma en que tocaba. Entonces estoy cien por ciento
seguro
que esta es la transcripcion mas correcta que hay. Y sin mas preambulo:
Introduccion:
||------10------10---10-|------10------10---10-|
||---10------10---------|---10------10---------|
||-7-------7-------7----|-9-------9-------9----|
||----------------------|----------------------|
||----------------------|----------------------|
||----------------------|----------------------|(X6)
Todos los versos se derivan de esta misma estructura sientanse libres a
improvisar como deben tocarse puede ser al asar o muy estructurada; pero
en
si los acordes de Gustavo son muy faciles:
D
F#m
C
Bm
A
|-5----|-5----|-7----|--2-2--2-2-|
|-7----|-7----|-5----|--3-3--2-2-|
|-7----|-6----|-5----|--4-4--2-2-|
|-7----|-4----|-5----|--4-4--2-2-|
|------|------|------|-----------|
|------|------|------|-----------|
O, a veces Cerati solo toca:
D
F#m
C
Bm
A
|------5----|-5----|------|--2-2------|
|--7---7----|-7----|-5----|--3-3--2-2-|
|------7----|-6----|-5----|--4-4--2-2-|
|/7---------|------|-5----|--4-4--2-2-|
|-----------|------|------|-----------|
|-----------|------|------|-----------|
Para el coro Cerati hace algo muy simple, aunque dificil de mantener con
la
letra asi que escuchen muy bien cuando toca cada parte; la linea musical
va
primero despus le siguen la letra:
|-----3--|

|------3-|
|-2/4----| No quiero soar
|--------|
|--------|
|--------|
|----5---|
|-----5--|
|4/6---6-| mil veces las
|--------|
|--------|
|--------|
|-2-------0-----|
|--2----0---0---|
|2--2---------1-| mismas cosas
|---------------|
|---------------|
|---------------|
Otra ves lo mismo solo que con un diferente final:
|-----3--|
|------3-|
|-2/4----| Ni contempla...
|--------|
|--------|
|--------|
|----5---|
|-----5--|
|4/6---6-| arlas sabiamente,
|--------|
|--------|
|--------|
|------------------|
|------------------|
|------------------|
|------------------|
|--0-2-2h4-2-0-----|
|2-------------2p0-|
Y termina el coro con (conste si lo estan tocando despues de un puente no
toquen la C ni lo que sigue):
G
A
C
|-3--|--0--|--3--|-0-------|
|-3--|--2--|--1--|---0-1---|
|-0--|--2--|--0--|-------0-|
|-0--|--2--|--2--|---------|
|-2--|--0--|--3--|---------|
|-3--|-----|-----|---------|
Que nos lleva al puente, que son acordes de poder:
[ Tab from: http://www.guitaretab.com/s/soda-stereo/255383.html ]

|-------------------------------|-----------------|-----------------|
|-------------------------------|-----------------|-----------------|
|-------------------------------|-----------------|-----------------|
|-7-7-7-7-7-7-7-7-7-7-7-7-7-7-7-|-----------------|-5-5-5-5-5-5-5-5-|
|-7-7-7-7-7-7-7-7-7-7-7-7-7-7-7-|-7-7-7-7-7-7-7-7-|-5-5-5-5-5-5-5-5-|
|-5-5-5-5-5-5-5-5-5-5-5-5-5-5-5-|-7-7-7-7-7-7-7-7-|-3-3-3-3-3-3-3-3-|
|-------------------------------|-5-5-5-5-5-5-5-5-|-----------------|
Te comportas con lo que te dicta
cada momento
Y esa inconstancia no es algo heroico, es mas
|-------------------|
|-------------------|
|--4-4--------2-2---|
|--4-4--------2-2---|
|--2-2--------0-0---|
|-------------------|
bien algo enfermo
Y devuelta al coro (no lo voy a escribir otra ves mira arriba holgazan).
Y
Despues a otro puente solo que mas simple y en mi opinion aun mas macizo,
esto es muy estructurado, es decir mantengan el tiempo. La mano le pega a
las cuerdas primero la 6ta cuerda y despues toca el acorde abajo, arriba,
abajo, arriba:
|------7-X-X-7----|
|------7-X-X-7----|
|------7-X-X-7----|
|------7-X-X-7----|
|------9-X-X-9----|
|-7----7-X-X-7----|
Y al final toca para arriba y repite... solo se toca una ves lo de alado
del
acorde y no es a la primera vuelta es hasta la segunda ves:
|---7---|---10-10|
|---8---|---8--8-|
|---7---|--------|
|---9---|--------|
|---7---|--------|
|-------|--------|
Y esto lleva al solo (Tan Tan Tan) no se preocupen esto solo es corto y
muy
basico:
|-7---------------7-8-7------------|-------------------------------|
|---10-8--7/9-10--------10-8-------|-----10~~~----------------10~~~|
|----------------------------7/9b--|-9p7---------------------------|
|----------------------------------|----------9-7-6~~~6-6-7-9------|
|----------------------------------|-------------------------------|
|----------------------------------|-------------------------------|
Nota: Manten la doblada de el 9 y despues de tocar el 10 bajala
|----------------------------|

|------------10--------------|
|-------7-9b----9r-7-9-7-----|
|-6-7-9-------------------9/-|
|----------------------------|
|----------------------------|
Despues al coro otra vez solo que terminen en otra cosa:
|-5-5-5-5-|-7-7-7-7-|
|-7-7-7-7-|-9-9-9-9-|
|-7-7-7-7-|-9-9-9-9-|
|-7-7-7-7-|-9-9-9-9-|
|---------|---------|
|---------|---------|
Y para terminar con toda la cancion vamos devuelta al segundo puente 4
veces:
|------7-X-X-7----|---7---|---9----|
|------7-X-X-7----|---8---|---10---|
|------7-X-X-7----|---7---|---9----|
|------7-X-X-7----|---9---|---11---|
|------9-X-X-9----|---7---|---9----|
|-7----7-X-X-7----|-------|--------|
Y por fin el ultimo acorde:
|---7---|
|---7---|
|---7---|
|---7---|
|---9---|
|---7---|
Eso es todo acuerdense de escuchar toda la cancion y tocar al lado de la
version del Ultimo Concierto.
Con gusto: Salvador Jose Quezada Mejia