Está en la página 1de 182

Intro X3

Am, C, E, E7
Am
C E
E7
Am
Eres, lo que mas quiero en este mundo eso eres,
C
E
E7
Dm D* D9 Dm
mi pensamiento mas profundo tambin eres,
E
Am C E E7
tan solo dime lo que hago aqu me tienes.
Am C E
E7
Am
C
Eres, cuando despierto lo primero eso eres,
E7
Dm D* D9 Dm
lo que a mi vida le hace falta si no vienes,
E7
Am C E E7
la mujer preciosa que en mi mente habita hoy.
Dm
E7
A5 B5 C#5 E5
Que mas puedo decirte, tal vez puedo mentirte sin razn,
D5
E5
D5 C5 B5 A5
pero lo que hoy siento, es que sin ti estoy muerto pues eres....
E5
Am C E E7
...lo que mas quiero en este mundo eso eres.
El arpegio lleva unos bajos entre C y E en la 5 cuerda 0,1,2
**Am
Eres, el tiempo que comparto eso eres,
lo que la gente promete cuando se quiere,
mi salvacin, mi esperanza y mi fe.**
Am C E
E7
Am C
Soy, el que quererte quiere como nadie soy,
E
E7
Dm
el que te llevara el sustento da a da da, da,
E7
Am C E E7
el que por ti dara la vida ese soy.
Dm
E7
A5 B5 C#5 E5
Aqu estoy a tu lado, y espero aqu sentado hasta el final,
D5
E7
D5 C5 B5 A5
no te has imaginado, lo que por ti he esperado pues eres...
E5
Am
C
....lo que yo amo en este mundo eso eres...
F
E7
Am
C
cada minuto en lo que pienso eso eres...
F
E7
Am
lo que mas cuido en este mundo eso eres.....

INTRO:Am C Dm6 E7 (4)


ARPEGIO 2 GUITARRA ' FONDO ' en toda la cancin
Am
C
Dm6
E
e|----------0-------------0-----------------0----------0---|
B|--------1---1-------------1-------------3----------2---2-|
G|------2-------------0----------------2----------1--------|
D|-----------------------------------3---------------------|
A|--0-------------3------------0-1-2-----------------------|
E|---------------------------------------------0-----------|
Am
C
Dm6
E
e|----------0-------------0-----------------0----------0---|
B|--------1---1-------------1-------------3----------2---2-|
G|------2-------------0----------------2----------1--------|
D|-----------------------------------3---------------------|
A|--0-------------3------------0-1-2-----------------------|
E|---------------------------------------------0-----------|
Dm Dsus D6 Dm7 E7
e|-------1-0----3-1-----------0--------------|
B|-----3------2-------------0---0------------|
G|---2--------------------1-------1---1------|
D|-0-------0------------2-----------2--------|
A|-------------------------------------------|
E|--------------------0----------------------|
Am
C
Dm6
E
e|----------0-------------0-----------------0----------0---|
B|--------1---1-------------1-------------3----------2---2-|
G|------2-------------0----------------2----------1--------|
D|-----------------------------------3---------------------|
A|--0-------------3------------0-1-2-----------------------|
E|---------------------------------------------0-----------|
Am C
ERES
Dm6
E7
LO QUE MAS QUIERO EN ESTE MUNDO
Am C
ESO ERES
Dm6
E7
MI PENSAMIENTO MAS PROFUNDO
Dm Dsus D6 Dm7
TAMBIEN ERES
E7
Am C Dm6 E7
TAN SOLO DIME LO QUE HAGO AQUI ME TIENES
Am C
ERES
Dm6
E7
CUANDO DESPIERTO LO PRIMERO
Am C

ESO ERES
Dm6
E7
LO QUE A MI VIDA LE HACE FALTA, SI NO
Dm Dsus D6 Dm7
VIENES
E7
Am C Dm6 E7
LO NICO PRECIOSA, QUE EN MI MENTE HABITA HOY
coro
Dm
QUE MAS PUEDO DECIRTE
E7
TAL VEZ PUEDO MENTIRTE
Am Am/B Am/C Am7
SIN RAZN
Dm
PERO LO QUE HOY SIENTO
G
G#m9
ES QUE SIN TI ESTOY MUERTO
Dm Dm/C Dm/B Dm/A#
PUES ERES
E7
Am C Dm6 E7 Am C Dm6 E7
LO QUE MAS QUIERO EN ESTE MUNDO ESO ERES
Am C Dm6 E7
Am C Dm6 E7
Am7
ERES
Am7
Am
EL TIEMPO QUE COMPARTO ESO ERES
Am7
LO QUE LA GENTE PROMETE CUANDO SE QUIERE
Am7
Am Am7
MI SALVACIN, MI ESPERANZA, Y MI FE
Am C
SOY
Dm6
E7
EL QUE QUERERTE QUIERE COMO NADIE
Am C
SOY
Dm6
E7
EL QUE TE LLEVARIA EL SUSTENTO
Dm Dsus D6 Dm7
DA. DA, DA, DA
E7
Am C Dm6 E7
EL QUE POR TI DARA LA VIDA,ESE SOY
coro
Dm
AQUI ESTOY A TU LADO
E7
Y ESPERO AQUI SENTADO

Am Am/B Am/C Am7


HASTA EL FINAL
Dm
NO TE HAS IMAGINADO
G
G#m9
LO QUE POR TI HE ESPERADO
Dm Dm/C Dm/B Dm/A#
PUES ERES
E7
Am C Am7/G
LO QUE YO AMO EN ESTE MUNDO, ESO ERES
F
E7
Am C Am7/G
CADA MINUTO EN LO QUE PIENSO, ESO ERES
F
E7
Am C Am7/G
LO QUE MAS CUIDO EN ESTE MUNDO, ESO ERES
F E7 Am C Am7/G F E7
Am C Am7/G F E7 Am C Am7/G F E7 Am C Am7/G F E7 Am
ACORDES:
NOTAS :EADGBe
CUERDAS:654321
Am/B -020210
Am/C -030210
Dm/C -030231
Dm/B -020231
Dm/A# -010231
G#m9 -420030
Am7/G -302010
Dm6 -023230
Am7 -002010
este signo ' ^ ' quire decir que jalen las cuerdas
hamer= la letra ' h ' se ignifica martilleo con el dedo (solo una vez)
o si no le entiendes es esto * E|---0-1/2---------------------------------------------------------------------------------Am

(2guitarra)
C
Em

Em7

^
e|------0--------0------------0---------0-------0---------|
B|------1-------------------------3--------3--------3-----|
G|------2------0------------1--------1--------1---------1-|
D|----2------2--------------------------------------------|
A|--0------3--------*0h1/2--------2-----------------------|
E|--------------------------------------------------------|
INTRO Am C Em Em7
2 guitarra (o los dos)
Am C
Eres
E
E7
lo que mas quiero
en este mundo eso

x4 (1 guitarra)

Am C
eres
E E7
mi pensamiento
mas profundo
1 /*1 / 1 /*1 / 1 (estos se tocan no muy rapido pero si
un poco)(hasta mero abajo este acorde *Am)
tambien eres
E
E7
tan solo dime
lo que dejo
Am
C E E7
aqui me tienes
(las dos guitarras)
Am C
eres
E
E7
cuando despierto
lo primero eso
Am C
eres
E
E7
lo que ha mi vida
le hace falta si no
1 /*1 / 1 /*1 / 1 (estos se tocan no muy rapido pero si un poco)
vienes
E
E7
lo unico precioso
que en mi mente
Am
C E E7
avita hoy
Dm
que mas puedo decirte
G
talvez puedo mentirte
2(hasta mero abajo este acorde)
sin razon
Dm
pero lo que hoy siento
G
es que sin ti estoy
2
muerto pues eres
lo que mas quiero
(COMIENZA LA 2 GUITARRA)

en este mundo eso eres


(interlude) se repite el intro x6 (pimero 3 veces la 2guitarra
y las otras 3 veces los dos juntos)
Am 2
eres
Am
2
el tiempo que comparto
Am 2
eso eres
Am
2
lo que la gente promete
Am 2
cuando se quiere
Am 2
mi salvacion
Am
2
mi esperanza y mi fe
Am C
soy
E
E7
el que quererte
quiere como novia
Am C
soy
E
E7
el que te llevaria
1 /*1 / 1 /*1 / 1
hasta el sustento... dia, dia, dia, dia
E
E7
el que por ti
daria la vida
Am C E E7
ese soy
Dm
aqui estoy a tu lado
G
y espero aqui sentado
2
hasta el final
Dm
no te has imaginado
G
lo que por ti he esperado
2/Am Am < este acode le rasgueas 3 veces)
pues eres
lo que yo amo

en este mundo
Am C
eso eres
E
E7
cada minuto en lo
Am C
que pienso eso eres
E
E7
lo que mas cuido
Am C
eso eres.
outro (como el intro pero x6)
acordes en guitarra
Am = LA menor
\
1]---|---|---|---|
2]-0-|---|---|---|
3]---|-0-|---|---|
4]---|-0-|---|---|
5]---|---|---|---|
6]---|---|---|---|
/
C = Do mayor
\
1]---|---|---|---|
2]-0-|---|---|---|
3]---|---|---|---|
4]---|-0-|---|---|
5]---|---|-0-|---|
6]---|---|---|---|
/
E = MI mayor
\
1]---|---|---|---|
2]---|---|---|---|
3]-0-|---|---|---|
4]---|-0-|---|---|
5]---|-0-|---|---|
6]---|---|---|---|
/
E7 = MI mayor septima
\
1]---|---|---|---|
2]---|---|-0-|---|
3]-0-|---|---|---|
4]---|-0-|---|---|
5]---|-0-|---|---|
6]---|---|---|---|
/
*1 = *1(NO SE COMO SE LLAMA)
\
1]---|---|-0-|---|
2]---|---|-0-|---|
3]---|-0-|---|---|

4]---|---|---|---|
5]---|---|---|---|
6]---|---|---|---|
/
1 = 1(NO SE COMO SE LLAMA)
\
1]---|---|---|---|
2]---|---|-0-|---|
3]---|-0-|---|---|
4]---|---|---|---|
5]---|---|---|---|
6]---|---|---|---|
/
2 = 2(NO SE COMO SE LAMA)
\
1]---|---|---|---|
2]---|---|-0-|---|
3]---|-0-|---|---|
4]---|-0-|---|---|
5]---|---|---|---|
6]---|---|---|---|
/
Los acordes utilizados son:
Am C E E7 Dm Bdim/A G A5
e|-0- -0- -0- -0- -1- --1--- -3- --B|-1- -1- -0- -0- -3- --0--- -0- --G|-2- -0- -1- -1- -2- --2--- -0- -2D|-2- -2- -2- -0- -0- --0--- -0- -2A|--- -3- -2- -2- --- ------ -2- -0E|--- -0- -0- --- --- ------ -3- --B5 C#5 E5 D5 C5 E5* Bm7/b5 Dm6 (?)
e|--- ---- --- --- --- --- --1--- -0- --B|--- ---- --- --- --- --- --0--- -3- --G|-4- --6- -9- -7- -5- --- --2--- -2- -1D|-4- --6- -9- -7- -5- -2- --0--- -3- -0A|-2- --4- -7- -5- -3- -2- --2--- -2- -2E|--- ---- --- --- --- -0- --0--- -0- -4Bueno ya me ray con eso de los nombres de los acordes, asi que ya no le
puse nombre al (?), que va en el CORO. Ahi ustedes lo nombran y haber si
me lo mandan al mail, asi tambien, cualquier comentario es considerado
como constructivo.
INTRO:
Am
C
E
E7
e|--------------------------------------B|-1--1-1--1--1-1-1-1--5--5-5--5--5--5-5G|-2--2-2--2--2-2-2-2--7--7-7--7--7--7-7D|--------------------------------------A|--------------------------------------E|---------------------------------------

Am
C
E
E7
e|------------------------------------------||
B|-1-1-1-1--1--1-1-1-1--5-5-5-5--5--5-5-5-5-||
G|-2-2-2-2--2--2-2-2-2--7-7-7-7--7--7-7-7-7-||
D|------------------------------------------||
A|------------------------------------------||
E|------------------------------------------||
Am C
E
E7
e|-------0------|----------------------B|-1-------1----|-----------0-3--[1]---G|----2------0--|----------1---1-------D|-----2----2---|---------2------0-----A|-2------------|--0-1-2---------------E|--------------|-0--------------------Am C
E
E7
e|-------0----0--|----------------0-------||
B|-----1--1------|-----------0-3---3------||
G|----2-----2----|----------1--[1]-[1][2]-||
D|---2-------2---|---------2--------------||
A|--0------------|--0-1-2-----------------||
E|---------------|-0----------------------||
____________________________________
----------------------------------------------------------------------NOTA:
Solo desde el 2do verso va el acompaamiento con los acordes que
escrib sobre el TAB y adems donde estn los signos de interrogacin
-?-?- debes reemplazarlos por 1's 'unos' y tocar esa parte as.
Bueno aunque eso solo es un pequeo detalle, si escuchas detenidamente
el CD encontrars esto.
VERSOS 1, 2 y 3:
Am
C E
E7
e||--- ----0---0--|----------------0-------|
B||--- ---1--1----|-----------0-3---3------|
G||--- --2--------|----------1--[1]-[1][2]-|
D||--- -2-----2---|---------2--------------|
A||-0- -----------|---0-1-2----------------|
E||--- -----------|--0---------------------|
Am
C
E
E7
E|-------0------0---|----------------0-------|
B|-----1--1----?-?--|-----------0-3---3------|
G|----2-----2-------|----------1--[1]-[1][2]-|
D|---2-------2------|---------2--------------|
A|--0---------------|--0-1-2-----------------|
E|------------------|-0----------------------|
Dm Bdim/A
E
E7
E|--1-----1-0--3-0--|------0----0-----------|
B|-----3------------|-----0--3--[3]---------|
G|------2-----------|----1---[1]-[1]--------|
D|------------------|---2-------------------|

A|------------------|--2--------------------|
E|------------------|-----------------------|
Am
C E
E7
e|--- ----0---0--|----------------0-------||
B|--- ---1--1----|-----------0-3---3------||
G|--- --2--------|----------1--[1]-[1][2]-||
D|--- -2-----2---|---------2--------------||
A|-0- -----------|---0-1-2----------------||
E|--- -----------|--0---------------------||
Verso 1.------Eres,
Lo que ms quiero en este mundo
eso eres,
Mi pensamiento ms profundo
tambien eres,
Tan solo dime lo que hago
aqui me tienes.
Verso 2.------Am C
Eres,
E
E7
Cuando despierto lo primero
Am C
eso eres,
E
E7
Lo que a mi vida le hace falta
Dm
Bdim/A
si no vienes,
E
E7
Lo nico, preciosa, que en mi mente habita
Am C E E7
hoy.
____________________________________
----------------------------------------------------------------------CORO:
Dm
Que ms puedo decirte,
G
A5 B5 C#5 E5
Tal vez puedo mentirte sin razoon,
Dm
Pero lo que hoy siento,
G
(?)
D5 C5 B5 E5*
es que sin ti estoy muerto, pues ereeeeeee eee ees...
E7
Lo que ms quiero en este mundo,
____________________________________
-----------------------------------------------------------------------

SOLO:
esoo.. eeres.....
e|-------0---0--|----------------0-------B|-1------------|-----------0-3---3------G|----2----2----|----------1---1--[1][2]-D|-----2----2---|---------2--------------A|-2------------|--0-1-2-----------------E|--------------|-0----------------------e|-------0----0--|-----------------------|
B|-----1--1------|-----------0-3--[1]----|
G|----2-----2----|----------1---1--------|
D|---2-------2---|---------2------0------|
A|--0------------|--0-1-2----------------|
E|---------------|-0---------------------|
Am
C E
E7
e|--- ----0---0--|----------------0-------|
B|--- ---1--1----|-----------0-3---3------|
G|--- --2--------|----------1---1--[1][2]-|
D|--- -2-----2---|---------2--------------|
A|-0- -----------|---0-1-2----------------|
E|--- -----------|--0---------------------|
Am
C
E
E7
E|-------0-----0----|---------------0-------|
B|-----1--1---------|----------0-3---3------|
G|----2-----2-------|---------1---1--[1][2]-|
D|---2-------2------|--------2--------------|
A|--0---------------|--0-1-2----------------|
E|------------------|-0---------------------|
Am
C E
E7
e|--- ----0---0--|----------------0-------||
B|--- ---1--1----|-----------0-3---3------||
G|--- --2--------|----------1---1--[1][2]-||
D|--- -2-----2---|---------2--------------||
A|-0- -----------|---0-1-2----------------||
E|--- -----------|--0---------------------||
____________________________________
----------------------------------------------------------------------INTERLUDE:
Eres.........
el tiempo que comparto,
eso eres
e|--0--0-0--0--0-0-0-0-------------------------------------------------B|--5--5-5--5--5-5-5-5---5--5-5--5--5-5-5-5--5---5-5---5--5-5--5--5-5-5G|--7--7-7--7--7-7-7-7---7--7-7--7--7-7-7-7--7---7-7---7--7-7--7--7-7-7D|---------------------------------------------------------------------A|---------------------------------------------------------------------E|---------------------------------------------------------------------lo que la gente prometi cuando se quiere
e|---------------------------------------------------B|--5--5-5--5--5-5-5-5--5---5-5---5--5-5--5--5-5-5-5--

G|--7--7-7--7--7-7-7-7--7---7-7---7--7-7--7--7-7-7-7-D|---------------------------------------------------A|---------------------------------------------------E|---------------------------------------------------mi salvacin mi esperanza


y mi fe.....
e|----------------------------------------------------------------------|
B|-5--5-5--5--5-5-5-5--5---5-5---5--5-5--5--5-5-5-5--5--5-5--5--5-5-5-5-|
G|-7--7-7--7--7-7-7-7--7---7-7---7--7-7--7--7-7-7-7--7--7-7--7--7-7-7-7-|
D|----------------------------------------------------------------------|
A|----------------------------------------------------------------------|
E|----------------------------------------------------------------------|
____________________________________
----------------------------------------------------------------------Verso 3.------TAB de los Versos 1 y 2.
Am C
Soy,
E
E7
El que quererte quiere como nadie
Am C
soy,
E
E7
El que te llevara el sustento
Dm Bdim/A
da a da, da a da,
E
E7
El que por ti dara la vida,
Am C
E E7
ese soy,
____________________________________
----------------------------------------------------------------------CORO:
Dm
Aqu estoy a tu lado
G
A5 B5 C#5 E5
Y espero aqu sentado hasta el finaaaa aal..
Dm
No te has imaginado,
G
(?)
D5 C5 B5 E5*
Lo que por ti he esperado, pues ereeeeee eee ees.....
E7
Lo que yo amo en este mundo eso....
____________________________________
----------------------------------------------------------------------OUTRO:
Am
C
Bm7/b5 E7
Am
C
Dm6
E7
\
Eeres...
|
e|-----------0-----|----------0----------- |

B|-1-----1----1----|---------1---0--3----- |
G|--------2----2---|--------2-------[1]--- |
D|-----2--------2--|------3--------------- |
A|-2---------------|---------------------- |
E|-----------------|--[0][1]-------------- |
\
Am C Bm7/b5 E7
X4
Am C Dm6
E7
/
e|-------0---|-------0--------------|
|
B|-----1--1--|------1---0-3---3-----|
|
G|----2------|-----2---------1-[1]--|
|
D|---2-------|--3-------------------|
|
A|--0--------|----------------------|
|
E|-----------|-[1]------------------|
|
/
Bm7/b5 E7
Cada minuto en lo que pienso
Am C
eso eres,
Bm7/b5 E7
Lo que ms cuido en este mundo
Am C Bm7/b5 E7
eso eeereeees. .........
Am C Bm7/b5 E7
Am C Dm6
E7 x 5
NOTA:
Para esta parte debes repetir el TAB del OUTRO por 4 veces y terminar
con Am como parte del TAB.
Puse los acordes para el OUTRO sobre el TAB para mostrar el tiempo en
que se tienen que tocar junto con las notas del punteo, pero dentro de
la secuencia de la cancin Debes guiarte con el Lyric del OUTRO
y terminas con Am, igual que en el TAB.
Am C Esus E10
Am C
eres,
Esus
E10
lo que mas quiero en este mundo
Am C
eso eres,
Esus E10
mi pensamiento mas profundo,
Dm7
tambin eres,
Esus
tan solo dime lo que hago
Am C Esus E10
aqu me tienes.

Am C
eres,
Esus
E10
cuando despierto lo primero,
Am C
eso eres,
Esus
E10
lo que a mi vida le hace falta
Dm7
si no vienes
E10
lo unico, preciosa,
que en mi mente habita
Am
hoy
Dm
E10
Am
Que mas puedo decirte, tal vez puedo mentirte sin razn,
Dm
G
Dm E10
pero lo que hoy siento, es que sin ti estoy muerto pues eres
Am C Esus E10
Lo que mas quiero en este mundo eso eres.
Am
C
Eres,
Esus
E10
el tiempo que comparto,
Am C
eso eres,
Esus
E10
Dm7
lo que la gente promete cuando se quiere,
Esus
Am C Esus E10
mi salvacin, mi esperanza y mi fe.
Am C
Soy,
Esus
E10
Am C
el que quererte quiere como nadie soy,
Esus

E10

Dm7

el que te llevara el sustento da a da, da a da,


E10
Am C Esus E10
el que por ti dara la vida ese soy.
Dm
E10
Am
Aqu estoy a tu lado, y espero aqu sentado hasta el final.
Dm
G
Dm E10
no te has imaginado, lo que por ti he esperado pues eres
Am C Esus E10
lo que yo amo en este mundo eso eres
Esus E10
Am
C
cada minuto en lo que pienso eso eres...
Esus
E10
lo que mas cuido en este mundo
Am C Esus E10 Am
eso eres....
Am

E--5-A--7-D--7-G--5-B--5-E--5--

E--3-A--3-D--5-G--5-B--5-E--3--

Esus
E--0-A--2-D--0-G--2-B--0-E--0--

E10
E--0-A--2-D--0-G--1-B--0-E--0--

Dm

Dm7

E--0-- E--0-- E--3-A--0-- A--0-- A--5-D--0-- D--0-- D--5-G--2-- G--2-- G--4-B--3-- B--1-- B--3-E--1-- E--1-- E--3

| Chaque~o Palavecino
|
| AMOR SALVAJE
|
| ---???--|
| ---???--- ()
|
===================================================
Em
Am B7 C B7 Em
Am B7 C B7 Em
Am
Te llev sin preguntarte ni tu nombre
Em
con mi brazo encadenado en tu cintura
B7
asalt tu intimidad y tu ternura
C
B7
Em E7
para amar sin ms razones que el amor
Am
Nos besamos sin decir una palabra
Em
fuimos cmplices callados del verano

B7
y mis manos temblorosas se quemaron
C
B7
Em
seducidas por el fuego de tu piel
Am
Amor salvaje
Em
juntos cruzamos los umbrales del pecado
B7
con el pual de la pasin nos desgarramos
Em E7
sin derramar ni una gotita de dolor
Am
Amor salvaje
Em
como una selva tropical nos incendiamos
B7
y en un instante sin saber que no dejamos
Em
ni una ramita de ilusin para despus
Am B7 C B7 Em
Am
Adelante como un puma entre las sombras
Em
pegag tu cuerpo entero con mis besos
B7
y atrapado por las lunas de tu pecho
C
B7
Em E7
por el clido gemido de tu voz
Am
Y montados en el potro del deseo
Em
sin frontera por la noche galopamos
B7
y nos vio la madrugada con ojeras
C
B7
Em
temelados y dicindonos adis
Am
Amor salvaje
Em
juntos cruzamos los umbrales del pecado
B7
con el pual de la pasin nos desgarramos
Em E7
sin derramar ni una gotita de dolor
Am
Amor salvaje

Em
como una selva tropical nos incendiamos
B7
y en un instante sin saber que no dejamos
Em
ni una ramita de ilusin para despus
Am
Amor salvaje
Em
juntos cruzamos los umbrales del pecado
B7
con el pual de la pasin nos desgarramos
Em E7
sin derramar ni una gotita de dolor
Am
Amor salvaje
Em
como una selva tropical nos incendiamos
B7
y en un instante sin saber que no dejamos
Em
ni una ramita de ilusin para despus
Am B7 Em B7 Em

ESTA ES UNA CANCIN EN UN RITMO DE CHACARERA MUY BONITA


QUE ESPERO QUE LES GUSTE COMO ME GUSTO A M CUANDO LA
ESCUCH POR PRIMERA VEZ...
Los acordes de la intro son:
Em
Am B7 C B7 Em
Am B7 C B7 Em
intro
E||--------------------------------------0-2~3--------3--2-5-3-2-0--7--|
B||----------------------0-1-4-5-4-3---4------------5--------------8---|
G||------0-2-4-2-1-2---2--------------------------4--------------------|
D||--2-4----------------------------------------0----------------------|
A||--------------------------------------------------------------------|
E||--------------------------------------------------------------------|

--------2-3-2-3-4-5-----------5---5-7-8-11----------11--|
--5-4-5-------------5-------5-------------10------10----|
----------------------5---5-----------------11--11------|
------------------------7---------------------10--------|
--------------------------------------------------------|

--------------------------------------------------------|

--11-12-14--15-14-12-11--17-15-14-12-------------||
------------------------------------12-----------||
--------------------------------------12---------||
----------------------------------------14-------||
-------------------------------------------------||
-------------------------------------------------||
Am
Te llev sin preguntarte ni tu nombre
Em
con mi brazo encadenado en tu cintura
B7
asalt tu intimidad y tu ternura
C
B7
Em E7
para amar sin ms razones que el amor
Am
Nos besamos sin decir una palabra
Em
fuimos cmplices callados del verano
B7
y mis manos temblorosas se quemaron
C
B7
Em
seducidas por el fuego de tu piel
Am
Amor salvaje
Em
juntos cruzamos los umbrales del pecado
B7
con el pual de la pasin nos desgarramos
Em E7
sin derramar ni una gotita de dolor
Am
Amor salvaje

Em
como una selva tropical nos incendiamos
B7
y en un instante sin saber que no dejamos
Em
ni una ramita de ilusin para despus
Introduccin
Am
Anhelante como un puma entre las sombras
Em
degag tu cuerpo entero con mis besos
B7

y atrapado por las lunas de tu pecho


C
B7
Em E7
por el clido gemido de tu voz
Am
Y montados en el potro del deseo
Em
sin frontera por la noche galopamos
B7
y nos vio la madrugada con ojeras
C
B7
Em
desvelados, dicindonos adis
Am
Amor salvaje
Em
juntos cruzamos los umbrales del pecado
B7
con el pual de la pasin nos desgarramos
Em E7
sin derramar ni una gotita de dolor
Am
Amor salvaje

Em
como una selva tropical nos incendiamos
B7
y en un instante sin saber que no dejamos
Em
ni una ramita de ilusin para despus
Am
Amor salvaje

Em
juntos cruzamos los umbrales del pecado
B7
con el pual de la pasin nos desgarramos
Em E7
sin derramar ni una gotita de dolor
Am
Amor salvaje
Em
como una selva tropical nos incendiamos
B7
y en un instante sin saber que no dejamos
Em
ni una ramita de ilusin para despus
Am B7 Em

B7 Em

D
Em
A
A. Nos conocimos sin saber
D
B

que un cigarrillo y un cafe


Em
A
D
serian escusas excusas para el tiempo de los dos...
A. Voy a salir a caminar
y aunque es muy grande la ciudad
yo presiento que nos vamos aencontrar
C
B
B. Porque mantuviste encendida
Em A
la chispa de nuestro amor
A#
A Gm Fm
yo ahora te llevo en cada latido
Em A
de mi corazon
Em
A
D F#m-Fm
yo necesito tu amor dame tu amor....
Em
Gm Em
A
yo necesito tu amor igual que ayer
A. Como explicarte la emosion
cuando escuche por fin tu voz
quedo decirerta la ciudad solo para los dos
A. Otra vez en el mismo bar
un cigarrillo y un cafe
viejas excusas de un encuentro sin final
F#
A Gm Fm Em
Parece que al final los dos
A
pudimos reaccionar supimos reaccionar
A. Recuperemos el lugar
lugar que nadie mas lleno
y con las flores del jardin florecera el amor
B. ......
Em
A
Yo necesito tu amor
D
F#m-Fm
yo necesito tu amor oh
Em
Gm
yo necisito tu amor
Em
A
igual que ayer
IGUAL QUE AYER
LOS ENANITOS VERDES
INTRO: G ( VARIAS VECES)
1)

C
D
NOS CONOCIMOS SIN SABER
G
Em
QUE UN CIGARRILLO Y UN CAFE
Am
SERIAN EXCUSAS
D
G
PARA EL TIEMPO DE LOS DOS
C
D
VOY A SALIR A CAMINAR
G
Em
Y AUNQUE ES MUY GRANDE LA CIUDAD
Am
D
YO PRESIENTO QUE NOS VAMOS
G
A ENCONTRAR
2)
D
Am
Em
PORQUE MANTUVISTES ENCENDIDA
Am
D
LA CHISPA DE NUESTRO AMOR
D#
A#
AHORA TE LLEVO EN CADA LATIDO
G
D
DE MI CORAZON
3)
Am
D
YO NECESITO TU AMOR
G Em
DAME TU AMOR
Am
Gm
YO NECESITO TU AMOR
Am
D
IGUAL QUE AYER
C
COMO EXPLICARTE LA EMOCION
G
Em
CUANDO ESCUCHE POR FIN TU VOZ
C
D
QUEDO DESIERTA LA CIUDAD
G
SOLO PARA LOS DOS
C
D
OTRA VEZ EN EL MISMO BAR
G
Em
UN CIGARRILLO Y UN CAFE
Am
VIEJAS EXCUSAS
D
G
DE UN ENCUENTRO SIN FINAL
2) 3)
C D G Em C D G C D G Em Am D G
B7
G
PARECE QUE AL FINAL
B7 F C Am

LOS DOS PUDIMOS REACCIONAR


SUPIMOS REACCIONAR
C
D
RECUPEREMOS EL LUGAR
G
Em
LUGAR QUE NADIE MAS LLENO
Am
D
Y CON LAS FLORES DEL JARDIN
G
FLORECERA EL AMOR
2) 3) 3) 3)...
BUENO ESTA ES LA INTRUDUCCION :
EI----------------------------------------------------------------------------------------------------------------BI----0--1---3----3--1--1--0---1-------0--1--1-0 0-----4/5-3------0--1--3--3---1--1--0--0------------GI------------------------------------2------------------2--------------------------------------------2--2--0-0-DI-----------------------------------------------------------------------------------------------------------------AI----------------------------------------------------------------------------------------------------------------EI-----------------------------------------------------------------------------------------------------------------EL SOLO :
EI-------0-3-7--10/12-10-11----7-5-3--16--15-14-14-14-10-12-----7-------BI----3------------------------------------------------------------------------------GI-----------------------------------------------------------------------------------DI-----------------------------------------------------------------------------------AI-----------------------------------------------------------------------------------EI-----------------------------------------------------------------------------------EI---5----------0--7--5--3--0--0---------------------------10---10---11----10-10-12-10-12-----------------BI----------------------------------------3--------------------------------------------------------------------------GI--------------------------------------------2--0--2----0---------------------------------------------------------DI-------------------------------------------------------------------------------------------------------------------AI------------------------------------------------------------------------------------------------------------------EI-------------------------------------------------------------------------------------------------------------------EI-----5---3---0-0----------------------10-10-11----10-10-12-10-12---------------------------------------BI-------------------3--------------------------------------------------------------------------------------------GI-----------------------2--0--2---0----------------------------------------------------------------------------DI----------------------------------------------------------------------------------------------------------------AI----------------------------------------------------------------------------------------------------------------EI-----------------------------------------------------------------------------------------------------------------EI-7--5-3-5-3---5--0----------7----5---3---5----0--7---5-----3-4-5------3-3--------------------------BI-----------------------3------------------------------------------------------------------------------------GI------------------------------------------------------------------------------------------------------------DI------------------------------------------------------------------------------------------------------------AI------------------------------------------------------------------------------------------------------------EI-------------------------------------------------------------------------------------------------------------ELFINAL :

EI--------------------------------------------------------------------------------------------------------------BI-----0-1-3--3----1-1--0---1---------0-1---1--0-0------4/5-3---0-1--3--3--1--1------0-1------------GI--------------------------------2----------------------2----------------------------------------------------DI--------------------------------------------------------------------------------------------------------------AI-------------------------------------------------------------------------------------------------------------EI--------------------------------------------------------------------------------------------------------------EI-----------------------------------------------------------------------------------------------BI------------------------------------0-1-3-3--1-1--0-1--------------------------------------GI--------0-2--2--00------0------------------------------------------------------------------DI-----4-----------------4---------------------------------------------------------------------AI-----------------------------------------------------------------------------------------------EI----------------------------------------------------------------------------------------------EI----2--3--5--7---5-3---2----5--------------------------------------------------------------BI------------------------------------3---0--------0-------0----------------------------------GI------------------------------------------------------2------2-----4------------------------DI----------------------------------------------2----------------------------------------------AI--------------------------------------------------------------------------------------------EI-------------------------------------------------------------------------------------------OK ESPERO Q LES GUSTE ESTA TRANSCRIPCION CUALQUIER ERROR O COMENTARIO A:


gabriel_staiti@latinmail.com
>>>> IGUAL QUE AYER <<<<
Este es el Intro: todo esta en la escala pentafona de Re hechjenle ganas y sale ya veran
1------------------------------------------------------------------------------------------2-12-13-15-15-13-13-12-13----12-13-13-12-12----15v(17)-12-13-15-15-13-13-12-12-14-14-------3-------------------------14----------------14---------------------------------------12-12-4------------------------------------------------------------------------------------------5------------------------------------------------------------------------------------------6------------------------------------------------------------------------------------------1------------------------------------------------------------------------------------------2--------15--------15----------------------------------------------------------------------3-14v(16)---14v(16)---14v(16)-12-----------------------------------------------------------4------------------------------------------------------------------------------------------5------------------------------------------------------------------------------------------6------------------------------------------------------------------------------------------G
Am
D7
Nos conocimos sin saber
G G/F# Em
que un cigarrillo y un caf
Am7
D7
G
serian excusas para el tiempo de los dos
Am7 D7
voy a salir a caminar
G
G/F# Em
y aunque es muy grande la ciudad
Am7
D7
G

yo presiento que nos vamos a encontrar.


Bsdim Bdim
Porqu mantuviste encendida
Am7
la chispa de nuestro amor
A# A
G
F
Bsdim Bdim
ahora te llevo en cada latido de mi corazn
Am7
D7
G G/F# Em
Yo necesito tu amor dame tu am-o - or
Am7
C Am7
D7
yo necesito tu amor igual que ayer
G
Am7
D7
Cmo explicarte la emocin
G
G/F# Em
cuando escuch por fin tu voz
Am7
D7
G
quedo desierta la ciudad solo para los dos
Am7
D7
otra vez en el mismo bar
G G/F# Em
un cigarrillo y un caf
Am7
D7
G
viejas excusas de un encuentro sin final
Bsdim Bdim
Porqu mantuviste encendida
Am7
la chispa de nuestro amor
A# A
G
F
Bsdim Bdim
ahora te llevo en cada latido de mi corazn
Am7
D7
G G/F# Em
Yo necesito tu amor dame tu am-o - or
Am7
C Am7
D7
yo necesito tu amor igual que ayer
Aqui va el solo:
1-------------------------------------------------------------------------------14p15p17---2--------------15v(17)-15-15v(17)-15-----------------------------------14p15p17------------3-------12-14------------------------14v(16)-14h1214------------14p16----------------------4-12-14------------------------------------------------14p15p17----------------------------5------------------------------------------------------------------------------------------6------------------------------------------------------------------------------------------1-15-14-15-17------------------------------------------------------------------------------2-------------15-15V(17)-15V(17)-----------------------------------------------------------3----------------------------------14V(16)-14h12p14--------12-14--12p14h12-----------------4----------------------------------------------------12-12----------------12-14-12---------5----------------------------------------------------------------------------------12-14-126------------------------------------------------------------------------------------------1------------------------------------------------------12----------------------------------2-------------------15-15v-15-15v-15-15v(16)--------12----15-12-----------------------------

3--------------------------------------------14v-12-------------12s14--14vh12p14-14vh12p14-4------------------------------------------------------------------------------------------5----12-10-10s12---------------------------------------------------------------------------6-12---------------------------------------------------------------------------------------1----------12------------------------------------------------------------------------------2--------12--12-15v(17)-15p17h15--12p15h12-------------------------------------------------3-14v(16)---------------------------------14-12p14h12--------------------------------------4----------------------------------------------------14-12p14h12---------------------------5---------------------------------------------------------------14-12p14h12----------------6--------------------------------------------------------------------------15h12~~~--------BmVII
FVIII EVII
parece que al final los dos
AmV
D7V AmV
D7V
pudimos reaccionar supimos reaccionar
G Am7
D7
recuperemos el lugar,
G G/F# Em
lugar que nadie mas llen
Am7
D7
G
y con las flores del jardn florecer el amor
Bsdim Bdim
Porqu mantuviste encendida
Am7
la chispa de nuestro amor
A# A
G
F
Bsdim Bdim
ahora te llevo en cada latido de mi corazn
Am7
D7
G G/F# Em
Yo necesito tu amor dame tu am-o - or
Am7
C Am7
D7
yo necesito tu amor igual que ayer
1------------------------------------------------------------------------------------------2-12-13-15-15-13-13-12-13----12-13-13-12-12----15v(17)-12-13-15-15-13-13-12-12-14-14-------3-------------------------14----------------14---------------------------------------12-12-4------------------------------------------------------------------------------------------5------------------------------------------------------------------------------------------6------------------------------------------------------------------------------------------1------------------------------------19-19---------------------------------------------------2-12-13-15-15-13-13-12-13------17-20------20-17-20-17p20-15-----------------------------12-123-------------------------18p19-----------------------------14v(16)-14v(16)-14-12----12-12-124---------------------------------------------------------------------------------14---------5--------------------------------------------------------------------------------------------6--------------------------------------------------------------------------------------------ACORDES:
E e
Bsdim x2323x
Bdim x2313x
BmVII 799777
FVIII 88DDD8 (D=10)

EVII 779997
AmV 577555
D7V x57575
Enanitos Verdes
*
* LAMENTO BOLIVIANO
*
* ---???--*
* Big Bang (1994)
*
===================================================
Em
A) Me quieren agitar
me incitan a gritar
Bm7
soy como una roca
palabras no me tocan
Am7
adentro hay un volcan
que pronto va a estallar
Em
B7
yo quiero estar tranquilo
Em
A) Es mi situacion
una desolacion
Bm7
soy como un lamento
lamento boliviano
Am7
que un dia empezo
y no va a terminar
Em
B7
ya nadie hace dan~o
(para el coro las mismas notas)
Em
B) Y hoy estoy aqui
Bm7
borracho y loco
A#m7 Am7
y mi corazon idiota
Em
B7
siempre brillara (siempre brillara)
Em
Y yo te amare
Bm7
te amare por siempre
A#m7 Am7
nena no te peines en la cama
Em
que los viajantes
B7
se van a atrasar

(punteo)
B) Y hoy... (bis)
Em-Bm7
Em-Bm7
Am7-Bm7
Em-B7
Aqui mando La original Tablatura de Lamento Boliviano con los verdaderos acordes.
Soy de Cali/Colombia. Vale la pena aprendersela!!
Acordes:
MIm SIm LAm SI7
e---7----7----5----7--B---8----7----5----7--G---9----7----5----8--D---9----9----7----7--A---7----9----7----9--E---7----7----7----7--Mim
Sim
Me quieren agitar, me incitan a gritar... soy como una roca, palabras no me tocan
Lam
Sim
Si7
adentro hay un volcan, que pronto va a estallar... yo quiero estar tranquilo
e-------B----7--G---8-8-D--7----A-9-----E-------Mim
Sim
Es mi situacion , muna desolacion... soy como un lamento, lamento boliviano
Lam
Sim
Si7
Que un dia empezo y no va a terminar... y a nadie hace dao
e-------B----7--G---8---D--7----A-9-----E-------Uo... io io... eehh... ehhhh...
--7-----7--7-----5--5-----7---------------------8-----7----7---5---5----7---------------------9-----7--------5--------7---------------------9-----9--------7----7---9--7-7-7-7-7-7-7-7----7-----9--------7--------9--9-9-9-9-9-9-9-9----7-----7--------5--------7--7-7-7-7-7-7-7-7--Mim
Sim
Lam
Sim
Si7
Y hoy esoy aqui... borracho y loco... y mi corazon idiota... siempre brillara
Mim
Sim
Lam
y yo te amare... te amare por siempre.... nena no te peines en la cama...

Sim
Si7
que los viajantes se van a trasar.
<<SOLO>>
MIm
SIm
LAM
e---------------|---2h3p3---------------------|---------12--------------------|B--0-5-7-8-7----|--3------5h3-5/7-------------|------------15^--15------------|G------------4--|-4---------------------------|-13-13h15-----------14-12-14v--|D---------------|------------------9v-7h9p7v--|-------------------------------|A---------------|-----------------------------|-------------------------------|E---------------|-----------------------------|-------------------------------|SIm
SI7
MIm
e--------------------------------|-12h14-15^--15-14-12--15-14-12--15-14-12--|B--16h14h12p14--12-11-12^--------|------------------------------------------|G-------------------------12-11--|------------------------------------------|D--------------------------------|------------------------------------------|A--------------------------------|------------------------------------------|E--------------------------------|------------------------------------------|MIm
SIm
LAm
SI7
e-----------------|---------------------------------|-------14-14h15-14-16--|14/15----B--10-12-10/9h10--|------10h11-10h11--12h11/10------|-----------------------|------14-G-----------------|-9h10-----------------------12v--|--12h14----------------|---------D-----------------|---------------------------------|-----------------------|---------A-----------------|---------------------------------|-----------------------|---------E-----------------|---------------------------------|-----------------------|---------Si7
e--12/13----12/13------------------B--------12-------10-12^--10-------G----------------------------12-10-D----------------------------------A----------------------------------E----------------------------------Uo...
io io... eehh... ehhhh...
e--7--7--7---7-7-----5--5-----7-------------------B--8---8-8---7--7----5--5-----7-------------------G--9---------7---7---5----5---7-------------------D--9---------9-------7----7---9--7-7-7-7-7-7-7-7--A--7---------9-------7--------9--9-9-9-9-9-9-9-9--E--7---------7-------5--------7--7-7-7-7-7-7-7-7--Mim
Sim
Lam
Sim
Si7
Y hoy esoy aqui... borracho y loco... y mi corazon idiota... siempre brillara
Mim
Sim
Lam
y yo te amare... te amare por siempre.... nena no te peines en la cama...
Sim
Si7
que los viajantes se van a trasar.
Mim
Sim
Lam
Sim
Si7
Y hoy esoy aqui... borracho y loco... y mi corazon idiota... siempre brillara
Mim
Sim
Lam

y yo te amare... te amare por siempre.... nena no te peines en la cama...


e-----------------B--10/12-12-10----G--------------12-D------------------(x2)
Sim
Si7
que los viajantes se van a trasar.
e---------------------------------------------------------------------B--7h8-7-----------------7h8-7----------------------------------------G--------9-7-9v----------------9-7-9v-----------------5----------7----D----------------9-9-0----------------9-9-0---------5---7v-----7---9v-A----------------7-7-0-9--------------7-7-0-9---5h7--------7h9--------E----------------------7--------------------7-------------------------e--------------7-7-0--12--B--8-7---------8-8-0--12--G------9-7-9v--9-9-0--12--D--------------9-9-0------A--------------7-7-0------E--------------7-7-0------solo
Em-Bm7
Em-Bm7 Am7-Bm7
Em-Bm7
e-----0--2--3--2--0------------0--3--2--0------2---B--0-----------------0---0--3--------------3-------G--------------------------------------------------3
e--------12-10-12-----------------------B--12-12-----------12-10------10-12-10--G-------------------------12-----------12
e-----------------------------------B--10-12-10-----10-12-10-------------G------------12-----------12-11-12-11h
e----------------------15----15-14-12----15-14-12----------B-------------------17----------------------------10-12-9-10
G----------------16----------------------------------------D-------------17-------------------------------------------A--14-13-14------------------------------------------------e--------------------------------B-------10-12-10-----10--12-10---G--9-12-----------12------------12
e--15-15---14---12---15-----14-----12----------------B------------------------14----13------10-----12-----G-------------------------------------------------12-9
El Outro
e--------------------------------------8-----------------10-7
B-8-7---------8-7-------------------8-----10--------8-10----G------9-7-9-------9-7-9------8-10------------7-10----------D-------------------------10---------------------------------

e---------------------12
B--8-7-----------------G-------9-7-9---7-7----D-------------------9---

TU CaRcel
Intro:Requinto acompaado por estos acordes(RE,LA,SIm,SOL,LA x 2v)
RE
LA
Te vas amor si asi lo quieres que puedo yo hacer
SIm
SOL
tu vanidad no te deja entender
LA
que en la pobreza se sabe querer
RE
LA
Quiero llorar y me destroza que pienses asi
SIm
SOL
y mas que ahora me quede sin ti
LA
me duele lo que tu vas a sufrir
---CORO--RE
LA
Pero recuerda nadie es perfecto y tu lo veras
SIm
SOL
mas de mil cosas mejores tendras
LA
pero cario sincero jamas
RE
LA
Vete olvidando de esto que hoy dejas y que cambiaras
SIm
SOL
por la aventura que tu ya veras
LA
sera tu carcel y nunca saldras

REQUINTO: RE,LA, SIm, SOL, LA x 2veces

RE
LA
Quiero llorar y me destroza que pienses asi
SIm
SOL
y mas que ahora me quede sin ti
LA
me duele lo que tu vas a sufrir

---CORO--RE
LA
Pero recuerda nadie es perfecto y tu lo veras
SIm
SOL
mas de mil cosas mejores tendras
LA
pero cario sincero jamas
RE
LA
Vete olvidando de esto que hoy dejas y que cambiaras
SIm
SOL
por la aventura que tu ya veras
LA
sera tu carcel y nunca saldras (SE REPITE)
REQUINTO FINAL:RE, LA, SIm, SOL,LA

Intro:
E-------------------------------------------------B-------------------------------------------------G--9h11--11/9-7----7-7-9-9h11-11-7-9-9-7-6--------D-------------------------------------------------A-------------------------------------------------E-------------------------------------------------E------------------------------------------------B------------------------------------------------G--6-6-7-9-9-6-7--7-6-4---4-4-4-7-6-4-6/7/9-9----D------------------------------------------------A------------------------------------------------E------------------------------------------------D
A
E------------------------------------------------B------------------------------------------------G--9h11--11/9-7----7-7-9-9h11-11-7-9-9-7-6-------D------------------------------------------------A------------------------------------------------E------------------------------------------------Bm
G
A
E------------------------------------------------B------------------------------------------------G--6-6-7-9-9-6-7--7-6-4---4-4-4-7-6-4-6/7/9-9----D------------------------------------------------A------------------------------------------------E-------------------------------------------------

D
Te vas amor si as lo quieres
A
que puedo yo hacer, tu vanidad
Bm
no te deja entender
G
A
que en la pobreza se sabe querer.
D
Quiero llorar y me destroza
A
que pienses as, y mas que
Bm
ahora me quede sin ti
G
A
A7
me duele lo que tu vas a sufrir.
D
Pero recuerda, nadie es perfecto
A
y tu lo veras mas de mil cosas
Bm
mejores tendrs
G
A
A7
pero un cario sincero jams.
D
Vete olvidando,de esto que hoy dejas
A
y que cambiaras, por la aventura que
Bm
tu ya veras.
G
A
Ser tu crcel y nunca saldrs.
D
A
E------------------------------------------------B------------------------------------------------G--9h11--11/9-7----7-7-9-9h11-11-7-9-9-7-6-------D------------------------------------------------A------------------------------------------------E------------------------------------------------Bm
G
A
E----------------------------------------------------------B----------------------------------------------------------G--6-6-7-9-9-6-7--7-6-4---4-4-4-7-6-4-6/7/9-9--9h119h119h11D----------------------------------------------------------A----------------------------------------------------------E----------------------------------------------------------D
Quiero llorar y me destroza

A
que pienses as, y mas que
Bm
ahora me quede sin ti
G
A
A7
me duele lo que tu vas a sufrir.
D
Pero recuerda, nadie es perfecto
A
y tu lo veras ms de mil cosas
Bm
mejores tendrs
G
A
A7
pero un cario sincero jams.
D
Vete olvidando,de esto que hoy dejas
A
y que cambiars, por la aventura que
Bm
tu ya veras.
G
A
Ser tu crcel y nunca saldrs.
D
Pero recuerda, nadie es perfecto
A
y tu lo veras mas de mil cosas
Bm
mejores tendrs
G
A
A7
pero un cario sincero jams.
D
Vete olvidando,de esto que hoy dejas
A
y que cambiaras, por la aventura que
Bm
tu ya veras.
G
A A7
D
Ser tu crcel y nuuunca saldrs.
SOLO
1a parte
E-------------------------------------------------B--17/19-19-17--------------17-19-19---17-17------G--------------19-----19-19---------19------19-18---------------------------------------------------D-------------------------------------------------A-------------------------------------------------E-------------------------------------------------E-------------------------------------------

B----------17-17---------------------------G--18-18-19-----18-19--19-18-16------------D------------------------------------------A------------------------------------------E------------------------------------------E---------------------------------------------------B---------------------------17--17--17h19//-19-17/19b
G16-16-16-19-18-16-18-19--18--18--------------------D---------------------------------------------------A---------------------------------------------------E---------------------------------------------------2a parte
E-------------------------------------------------B-------------------------------------------------G--9h11--11/9-7----7-7-9-9h11-11-7-9-9-7-6--------D-------------------------------------------------A-------------------------------------------------E-------------------------------------------------E--------------------------------------------------------------B--------------------------------------------------------------G--6-6-7-9-9-6-7--7-6-4---4-4-4-7-6-4-6/7/9-9---9/11-9-11-9-7/D--------------------------------------------------------------A--------------------------------------------------------------E--------------------------------------------------------------INTRO
D-----------------------------------------G--------------------------------------22-B-------3-333--3--32-222--2-3320-000330--02
e-0h2-20-----22-00------00----------------- x2

D
Te vas amor,
A
si asi lo quieres que le voy a hacer,
F#m
Bm
tu vanidad no te deja entender,
G
A A7
que en la pobreza se sabe querer.
D
Quiero llorar,
A
y me destroza que pienses asi,
F#m
Bm
y mas que ahora que me quede sin ti,
G
A
A7
me duele lo que tu vas a sufrir.
D
* Pero recuerda,

A
nada es perfecto y tu lo veraz,
F#m
Bm
mas de mil cosas mejores tendras,
G
A
A7
pero un cario sincero jamas.
D
Vete olvidando,
A
de esto que hoy dejas y que cambiaras,
F#m
Bm
por la aventura que tu ya veraz,
G
A
A7
sera tu carcel y nunca saldras.*
INTRO
* Pero recuerda...x2
G
A
...sera tu carcel...
A
D
y nunca saldras.
Enanitos Verdes
|
| AMIGOS
|
| Marciano Cantero
|
| ---???--- ()
|
===================================================
C
Em
No importa el lugar,
Am
Em
el sol es siempre igual
F
No importa si es recuerdo
G
es algo que vendr
C
Em
No importa cuanto hay
Am
Em
en tus bolsillos hoy
F
sin nada hemos venido
G
y nos iremos igual
Am
Em F
Por que siempre estarn en mi
F
G
esos buenos momentos que pasamos sin saber
C
Em
No importa donde estas
Am
Em

Si vienes o si vas
F
La ida es un camino
G
Un camino para andar
C
Em
Si hay algo que esconder
Am
Em
O hay algo que decir
F
Siempre ser un amigo
G
El primero en saber
Am
Em F
Por que siempre estarn en mi
F
G
Esos bueno momentos que pasamos sin saber
F
G
Que una amigo es una luz
C Em Am
Brillando en la oscuridad
F
Siempre sers mi amigo
F
C
No importa nada mas
Am Em F
Por que siempre estarn en mi
F
G
Esos bueno m momentos que pasamos sin saber
F G
Que una amigo es una luz
C Em Am
Brillando en la oscuridad
F
Siempre sers mi amigo
F
C
No importa nada mas...
Amigos/Enanos Verdes
C
G/B Am7
Em
No importa el lugar el sol es siempre igual
F
F/D#
G
no importa si es recuerdo o es algo que vendra
C
G/B Am7
Em
no importa cuanto hay en tus bolsillos hoy
F
F/D#
G
sin nada hemos vinido y nos iremos igual
E7/G# Am
G F/D# G
pero siempre estaran en mi esos buenos momentos que pasamos sin saber
C

G/B

Am7

Em

no importa donde estas si vienes o si vas


F
F/D# G
la vida es un camino un camino para andar
C
G/B Am7
Em
si hay algo que esconder o hay algo que decir
F
F/D# G
siempre sera un amigo el primero en saber
E7/G# Am
G F/D# G
porque siempre estaran en mi esos buenos momentos que pasamos sin saber
G G/F# F G
C G/B Am7 Am7/G
que un amigo es una luz brillando en la obscuridad
F
G
C
siempre seras mi amigo no importa nada mas
Acordes outro: C

G/B Am7 Em F F/D# G

E7/G# Am
G F/D# G
porque siempre estaran en mi esos buenos momentos que pasamos sin saber
G G/F# F G
C G/B Am7 Am7/G
que un amigo es una luz brillando en la obscuridad
F
G
Dm G
siempre seras mi amigo no importa nada mas wooo
F G
C G/B Am7 Am7/G
que un amigo es una luz brillando en la obscuridad
F
G
F
siempre seras mi amigo no importa nada mas......
G:---------I
D:-10-9-7-5I
A:8--7-5-3-I
E:---------I
C
Acordes:
EADGBE
G/B
x2003x
E7/G# 4xx100
G/F#
2XX030
F
133211
G
320033
C
032010
Am7
002010
Am7/G 302010
F/D#
2XX232
Em
022000
Alguna duda o comentario a mi correo en Marinilla - Colombia
C
G
No importa el lugar,
Am
Em
el sol es siempre igual
F
C

No importa si es recuerdo
G
G7
es algo que vendr
C
G G9
No importa cuanto hay
Am
Em
en tus bolsillos hoy
F
C
sin a nada hemos venido
G
G7
y nos iremos igual
C
G Am
Por que siempre estarn en mi
F
D7
esos buenos momentos que
G
G7
pasamos sin saber
C
G
No importa donde estas
Am
Em
Si vienes o si vas
F
C
La vida es un camino
G
G7
Un camino para andar
C
G G9
Si hay algo que esconder
Am
Em
O hay algo que decir
F
C
Siempre ser un amigo
G
G7
El primero en saber
C
G Am
Por que siempre estarn en mi
F
D7
esos buenos momentos que
G
G7
pasamos sin saber
C
F G
Que una amigo es una luz
C G Am
Brillando en la oscuridad
F
Siempre sers mi amigo

G
C
No importa nada mas
Piano
+1: Una octava arriba de la central
sol / si / si / sol / (mas rpido) / mi / sol / la / do+1 / do+1 /
la+1 / sol+1 / mi+1 / re+1 / do+1 / (de nuevo lento) / si / do+1 /
re+1 / re+1

C
G Am
Por que siempre estarn en mi
F
D7
esos buenos momentos que
G
G7
pasamos sin saber
C
F G
Que una amigo es una luz
C G Am
Brillando en la oscuridad
F
Siempre sers mi amigo
G
C G7
No importa nada mas
C
F G
Que una amigo es una luz
C G Am
Brillando en la oscuridad
F
Siempre sers mi amigo
G
C
No importa nada mas

ACORDES
Bbmaj7
Esus4
e-1
e-0
B-4
B-0
G-2
G-2
D-3
D-2
A-1
A-2
E-1
E-0
D
E
Asi nos hubiran visto

D
E
estabamos ahi sentados
D A
frente a frente
D
E
F#m
no podia faltarnos la luna
Bm7
E
y hablamos de todo un poco
D
E
y todo nos causaba risa
D A
como dos locos
D
D F#m
y yo que no veia la hora
Bm7
de tenerte en mis brazos
E
y poderte decir ....
A
Te amo
D
desde el primer momento
E A
en que te vi
D
hace tiempo te buscaba
Bm7
Esus4-E
y ya te imaginaba asi.
A
Te amo
D
y aunque no es tan facil
E A
de decir
D
y defino lo que siento
Bm7
Esus4-E
con estas palabras
A
te amo
D A
uh, te amo
D
Y de pronto
E
nos toco el silencio
D
E
y nos miramos fijamente
D A
uno al otro
D
E
F#m
tus manos entre las mias.

D
E
Talvez nos volvermos a ver
D
E
maana no se si podre
D A
que estas jugando?
D
E
F#m
me muero si no te vuelvo a ver
Bm7
y tenerte en mis brazos
E
y poderte decir....
Te amo desde.....
Te amo aunque....
A
Te amo
D
A D C#m7 Bm7
uh, te amo
A D C#m7 Bm7 Bbmaj7 A
te amo.
e-2---0---------------0-2---0---------------0----2------0----------------------------B-------2-----------0---------2-----------0-----3------2--3-2---0-----0-----0-------0G---2-----2-1---1h2-------2-----2-1---1h2------2---2--2-------2---2-----2-----2---2--D-0---------2-2---------0---------2-2---------0-----------0---------2-----2-----2----A-----0---------------------0------------------------0------0---0-----0-----0--------E-----------0---------------------0--------------------------------------------------D
E Esus4
Ay si nos hubieran visto
D
E Esus4
D A
Estbamos ah sentados frente a frente
D
E
F#m F#m9 F#m
No poda faltarnos la luna
Bm7
E Esus4
Y hablbamos de todo un poco
Bm7
E Esus4
D A
Y todo nos causaba risa como dos tontos
D
E
F#m F#m9
Y yo que no vea la hora
Bm7
E
De tenerte en mis brazos y poderte decir.
A
D9
E A
Te Amo, desde el primer momento en que te v
D
D/C#
Bm7
E Esus4
Y hace tiempo te buscaba, ya te imaginaba as
A
D9
E
A
Te Amo, aunque no es tan fcil de decir
D
D/C#
Bm7
E Esus4 E Esus4
Y defino lo que siento con stas palabras
A D
A
Te Amo, uhuh, Te Amo.

D
Bm7
e--------2--------------------5B------3---3------------3----3-G----2-------2--------2-----2--D--0----------------4------4---A--------------4--2------------E------------------------------D
E Esus4
Y de pronto nos rode el silencio
D
E Esus4
D A
Y nos miramos fijamente uno al otro
D
E F#m F#m9
Tus manos entre las mas
Bm7
E Esus4
Tal vez nos volveremos a ver,
Bm7
E Esus4
D A
Maana no s si podr, Qu ests jugando
D
E
F#m F#m9
Me muero si no te vuelvo a ver
Bm7
E
Y tenerte en mis brazos y poderte decir.
A
D9
E A
Te Amo, desde el primer momento en que te v
D
D/C#
Bm7
E Esus4 E Esus4
Y hace tiempo te buscaba, ya te imaginaba as
A
D9
E
A
Te Amo, aunque no es tan fcil de decir
D
D/C#
Bm7
E Esus4 E Esus4
Y defino lo que siento con stas palabras
A
D
A
D F#m7 Bm7
e-------0-----------2-----------0-------------------------2-------5B-----2---2-------3---3-------2---2--------3-----2----2H3---3----3-G---2-------2---2-------2---2-------2----2-----2-----2--------2-2--D-------------0------------------------0---------------------------A-0-----------------------0------------------4-----2---------------E------------------------------------------------------------------Te Amo,
uhuh,
Te Amo...
Te amo.
e-------2-0---5-----2-----1-------------0----------7B-----3---------3-----3-----2-------2h3---2-------5-G---2-------2-----2-----2---------2---------2---6---D-0-----------------------------2-------------7-----A---------------2-----2-------0---------------------E---------------------------------------------------F#m9 244224
D9 x00230
Esus4 022200
D/C# x40232
INTRO

e --2----2--------------0--2----2----2----------0-B ---------3--0-------0-----------3--0-------0----G -----2---------1/2----------2---------1/2-------D --0---------2------------0---------2------------A ------------------------------------------------E ------------------------------------------------e ----2--0----------------------------B ---3-----3---2----0-----0-----0-----G --2----------2------2-----2-----2---D -------------2--2-----2-----2-----2-A ------------------------------------E ------------------------------------Lo que sigue va mas o menos asi(se trata
de arpegear los acordes)de cualquier forma
tienen que escucharla bien para que saquen
los tiempos
D
E
e -----------2-----------------0-----B --------3-----3-----------------0---G -----2-----------2------1/2--------2D -0-------------------2--------------A ------------------------------------E ------------------------------------Ay si nos hubieran visto
D
E
e -----------2------------------0-----B --------3-----3------0-----0-----0--G -----2-----------2---1--1----------1D -0-------------------2--------------A ------------------------------------E ------------------------------------estbamos ah sentados frente a frente
D
E
F#m
e -------2---------0------2-----44--2-2----4-4-B -----3---------0--------2-----2-2--2-2----2-2-G ---2---------1--------------------------------D -0---------2------------4--4-------4-4--4-----A ----------------------------------------------E ----------------------------------------------no poda faltarnos la luna
(igual va arpegiado)
D
E
y hablbamos de todo un poco
D
E
D
A
y todo nos causaba risa como dos tontos
D
E
F#m
e -------2---------0------2--4-x-4--2-2---4-4B -----3---------0--------2--2-x-2---2-2---2-2G ---2---------1----------2--2-x-2---2-2---2-2-

D -0---------2------------4--4-x-4---4-4---4-4A ------------------------4--4-x-4---4-4---4-4E ------------------------2--2-x-2---2-2---2-2y yo que no vea la hora v ^ ^ v ^ v ^


Bm7
E
de tenerte en mis brazos y poderte decir.
A
D
E A
Te amo, desde el primer momento en que te v
D
D/C#
Bm7
E Esus4 E
y hace tiempo te buscaba, y ya te imaginaba as
A
D
E
A
te amo, aunque no es tan fcil de decir
D
D/C# Bm7
E Esus4 E
y defino lo que siento con stas palabras
A
D
A
Bm7 v
e -0-----0----2-----2----0------0-----2----22-----------2--5--B -----2---2------3---3-------2---2--------3-3----------3---3---G ---2----------2-----------2-----------2--------------2----2---D ------------0-----------------------0---------------4-----4---A -0---------------------0----------------------4--2--------2---E -------------------------------------------------------------te amo uhuh
te amo.
(esto va un poco rpido)
D
E
Y de pronto nos toc el silencio
D
E
A
y nos miramos fijamente uno al otro
D
E
F#m
e -2-2------0-0-0-----2----44-4------4--B -3-3------0-0-0-----2----2-2-2------2--G -2-2------1-1-1-----2---------------2--D -0-0------2-2-2-----4--4------------4--A -0-0------2-2-2-----4------------4--4--E --------------------2---------------2--v^
^v^
v
v
tus manos entre las mas
D
E
Tal vez nos volveremos a ver,
D
E
D A
maana no s si podr, qu ests jugando
e -2-2---------0-0-0--------2--44-4-4-4-4-4-4--B -3-3---------0-0-0--------2--2-2-2-2-2-2-2-2--G -2-2---------1-1-1--------2--2-2-2-2-2-2-2-2--D -0-0---------2-2-2--------4--4-4-4-4-4-4-4-4---A -0-0---------2-2-2--------4--4-4-4-4-4-4-4-4--E --------------------------2--2-2-2-2-2-2-2-2---v^
^v^
v ^v^ v^vv^
Me muero si no te vuelvo a ver
Bm7
E
ni tenerte en mis brazos y poderte decir

A
D
E A
Te amo desde el primer momento en que te v
D
D/C#
Bm7
E Esus4 E
y hace tiempo te buscaba, y ya te imaginaba as
A
D
E
A
te amo, aunque no es tan fcil de decir
D
D/C# Bm7
E Esus4 E
y defino lo que siento con stas palabras
(esto todava no lo sacado muy bien)
A
D
A
D
e -0-----0----2------2------0-----0-----2-----------------2-----5-----B -----2---2-------3---3---------2--2------------------2h3--3---3-----G ---2-----------2-------------2----------------------4-------2-2-----D ------------0-------------------------0------------4----------4-----A -0------------------------0---------------4--2----2-----------2-----E -------------------------------------------------------------------te amo uhuhuh
te amo uhuh oh
v
e ---------------------2-----2---------2---------2--------------0------5--B -------------------3-----------------3---------3----------------0----5--G -----------------2-------2---2----2----2----2----2--------1h2-----1--6--D ---------------0----------------------------------------2------------7--A -----------------------4--------2---------0-----------2--------------7--E ----------------------------------------------------0----------------5--te amo uhuh oh (esto tambin va un poco rpido)
Transcripcin por: Hctor Gabriel Chvez Helguera
F#m
Bm
E
S que piensas marcharte ya lo s
A
D B7
E
Y no te detendr,
haz lo que tu
quieras,
F#m
Bm
E
Sin embargo recuerda que yo estar aqu
A
D
B7
En el mismo lugar, y si solo tienes ganas de hablar
E
Con gusto escuchar
F#m
Bm
Y si l supo darte ms amor
E
C#7
Supo llenarte ms que yo
F#m
Bm E
A A?
Claro que s perder, claro que s perder.
F#m
Bm
E
No tienes porque disimular
A
D
Esas lgrimas estn de ms,
B7
E
Si tienes que irte, Vete ya

F#m
Bm
Sin embargo esperaba que te quedaras,
E
A
Pero el agua hay que dejarla correr
D
B7
Mientras yo me tragaba palabras
E
Que no pude decir
F#m
Bm
Y si el viento hoy sopla a tu favor
E
C#7
D
Yo no te guardar renco-or, No
E
A
Claro que s perder
F#m
Bm
No ser la primera vez
G
A
D
Hoy te vas tu y maana me ire-ee yo
E
A
Ser un buen perdedor,
F#m
Bm
El mundo no cambiar,
G
A
D A?
Alguien sin duda ocupa tu lugar.

F#m
Bm
Sin embargo esperaba que te quedaras,
E
A
Pero el agua hay que dejarla correr
D
B7
Mientras yo me tragaba palabras
E
Que no supe decir
F#m
Bm
Y si el viento hoy sopla a tu favor
E
C#7
D
Yo no te guardar renco-or, No
E
A
Claro que s perder
F#m
Bm
No ser la primera vez
G
A
D
Hoy te vas tu y maana me ire-ee yo
E
A
Ser un buen perdedor,
F#m
Bm
El mundo no cambiar,

G
A
D E A F#m Bm
Alguien sin duda ocupa tu luga-aaa-aar.
E
A
Ser un buen perdedooooor

A
Dm
A
Dm
e-------------------1-0-1-0----------------------1-0-1-0--B----2---------2---3--------3-----2---------2---3--------3G---2--2-----2----2--------------2--2-----2----2----------D--2-----2-2-----0--------------2-----2-2-----0-----------A-0----------------------------0--------------------------E---------------------------------------------------------F#m
Bm7
E
e---------------------2-------------0--B-2---------2-------3---3---------0--0-G---2-------------2-------2-----1-----0D-----4---4-----4----------------------A-------------2-------------2----------E-2-----2---------------------0--------S que piensas marcharte ya lo s
A Amaj7 F#m E
D
E
e-----------------------------------2---------0-----0--------B-------------------2-------0---------------0----------------G-6---------6-----2-------0-----2-----2---1-----1h2---1h2p1--D-7-------6-----4-------1-----0-----------------2-----2-----2A---7---7----------------------------------------------------E-5---4-------2-------0-----------------0--------------------Y no te detendr,
haz lo que tu quieras,
F#m
B7m
E
e----------2-----------------2-----------------0------B-------2-----2-----------3-----3-----------0-----0---G----2-----------2-----2-----------2-----1-----------1D-----------------------------------------------------A-------------------2---------------------------------E-2-----------------------------------0---------------Sin embargo recuerda que yo estar aqu en el mismo lugar
AD
D9
F
D E*
e---------0----------2---2---0--0--0--4--4--4--2--2--4--4--4B-----2-2----------3---3-----3--3--3--3--3--3--3--3--5--5--5G-----2-----2----2---------2-2--2--2--4--4--4--2--2--4--4--4D---2----------0-------------0--0--0--3--3--3--0--0--2--2--2A-0---------------------------------------------------------E-----------------------------------------------------------y si solo tienes ganas de hablar con gusto escuchar
F#m
Bm7
E
C#7
e----------2-----------------2-----------------0---------------4------------B-------2-----2-----------3-----3-----------0-----0--------6-6-----6h7-9-7-6G----2-----------2-----2-----------2-----1-----------1---4-------4-----------

D--------------------------------------------------------------------------6A-------------------2----------------------------------4-------------------4E-2-----------------------------------0-------------------------------------Y si l supo darte ms amor Supo llenarte ms que yo


F#m
Bm
E
e---------------------------------------------------0---B----------2-----------------3-2h3p2-------------0------G-------2-----2-----------2-----------2-------1-------1-D----4-----------4-----4---------------4---2------------A-------------------2-----------------------------------E-2--------------------------------------0--------------Claro que s perder, claro que s perder.
A
Dm
A
Dm
e------------------1-0-1-0---------------------1-0-1-0--B-------2-----2---3--------3----2---------2---3--------3G-----2-----2----2-------------2--2-----2----2----------D---2-----2-----0-------------2-----2-2-----0-----------A-0--------------------------0--------------------------E-------------------------------------------------------F#m
Bm
E
e---------------------2---------------0--B-2---------2-------3---3---------0------G---2-------------2-------2-------1h2--1-D-----4---4-----4---------------2-------2A-------------2-------------2------------E-2-----2---------------------0----------No tienes porque disimular
A Amaj7 F#m E
D
E
e----------------------------------------2-2-----------0-----0-0--0-0-0-0B----------------------0---------0-----3-----3-------0------0--0--0-0-0-0G-----6--------6-----2---2-----0-----2---------2---1-------1h2-2--2-2-2-1D---7---7----6---6-----------1-----0----------------------2----2--2-2-2-2A--------------------------------------------------------2-----2--2-2-2-2E-5--------4-------2-------0---------------------0------0----------------Esas lgrimas estn de ms, Si tienes que irte, Vete ya
F#m
Bm7
Sin embargo esperaba que te quedaras,
E
A
Pero el agua hay que dejarla correr
D
Bm7
Mientras yo me tragaba palabras
F D E*
Que no pude decir
F#m
Bm7
Y si el viento hoy sopla a tu favor
E
C#7
D
Yo no te guardar renco-or, No
E
A
Claro que s perder
F#m
Bm7
No ser la primera vez

D
E
D
Hoy te vas tu y maana me ire-ee yo
E
A
Ser un buen perdedor,
F#m
Bm7
El mundo no cambiar,
D
E
D A Asus2
Alguien sin duda ocupa tu lugar. e-----0-----0----B-0h2---0h2---0h2G-2-----2-----2--F#m
Bm7
E
e----------2-----------------2-----------------0------B-------2-----2-----------3-----3-----------0-----0---G----2-----------2-----2-----------2-----1-----------1D-----------------------------------------------------A-------------------2---------------------------------E-2-----------------------------------0---------------Sin embargo esperaba que te quedaras, Pero el agua hay que dejarla correr
A
D
Bm7
F
D E*
e---------0-------2---2---2--2--2--4--4--4--2--2--4--4--4B-----2-2--------3--3-----3--3--3--3--3--3--3--3--5--5--5G-----2-----2---2-------2-2--2--2--4--4--4--2--2--4--4--4D---2----------0----------4--4--4--3--3--3--0--0--2--2--2A-0------------------------------------------------------E--------------------------------------------------------Mientras yo me tragaba palabras que no pude decir
F#m
Bm7
Y si el viento hoy sopla a tu favor
E
C#7
D
Yo no te guardar renco-or, No
E
A
Claro que s perder
F#m
Bm7
No ser la primera vez
D
E
D
Hoy te vas tu y maana me ire-ee yo
E
A
Ser un buen perdedor,
F#m
Bm7
El mundo no cambiar,
D
E
D E A F#m Bm7
Alguien sin duda ocupa tu luga-aaa-aar.
E
A
Ser un buen perdedooooor
F xx3434
Amaj7 47665x
Asus2 002200
D9 x00230
E* x22454
e--------------1--0--1--0-------------------1--0--1--0--------

B-2----------2-------------3---2----------2-------------3----G-2--2-----2----------------------2-----2--------------------D-2----2-2-----0--0--0--0-----------2-2-----0--0--0--0-------A-0----------------------------0-----------------------------E------------------------------------------------------------F#m
Bm
Se que piensas marcharte
E
ya lo se
- A G#m F#m E - (aqui solo se tocan los bajos de cada acorde
acompaados de la 4,3,2 arpegeada)
y no te detendre
D
E
haz lo que tu quieras.
F#m
Bm
Sin embargo recuerda que yo
E
A
estare aqui en el mismo lugar
D
Bm
y si solo tienes ganas de hablar
C#7
con gusto escuchare.
F#m
Bm
Y si el supo darte mas amor
E
C#7
supo llenarte mas que yo
F#m
Bm
claro que se perder
E
A (se repite la introduccin)
claro que se perder.
F#m
Bm
No tienes por que disimular.
E A
A7
D
Esas lagrimas estan de mas,
Bm
E
y si tienes que irte, vete ya.
F#m
Bm
Sin embargo, esperaba que te quedaras
E
A
pero el agua hay que dejarla correr
D
Bm
mientras yo me tragaba palabras
C#m
que no pude decir.

F#m
Bm
Y si el viento hoy sopla a tu favor
E
C7
D
yo no te guardare rencor, no
E
A
claro que se perder
F#m
Bm
no sera la primera vez
G
E A
hoy te vas tu, maana me ire yo.
F#m
A
Sere un buen perdedor
F#m
Bm
el mundo no cambiara
G
A D E A F#m
alguien sin duda ocupa tu lugar
E
A
Sere un buen perdedor
A
Dm
E----------------------------------A---0------------------------------D---2----2--2----------------------- se repite de nuevo
G------2------2----2---------------B---2-----------2--3-----------3---E------------------1--0--1--0------F#m
Bm7
E
S que piensas marcharte, ya lo s,
A A/G#m F#m E
y no te deten - dr
D
E Esus4-E
haz lo que t quieras.
F#m
Bm7
Sin embargo recuerda que yo
E
A
estar aqu, en el mismo lugar
D
D9
y si slo tienes ganas de hablar,
C#7 C#7sus4
con gusto escuchar.
F#m
Bm7
Y si l supo darte ms amor,
E
C#7
supo llenarte ms que yo,
F#m
Bm
claro que s perder,
E
A
claro que s perder.

(I N T R O)
A - Dm - A - Dm
F#m
Bm7
E
No tienes porqu disimular,
A
A/G# F#m E
esas lagrimas estn de ms,
D
E
Esus4-E
si tienes que irte, vete ya.
F#m
Bm7
Sin embargo, esperaba que te quedaras,
E
A
pero el agua hay que dejarla correr,
D
D9
mientras yo me tragaba palabras que no
C#7
C#7sus4
pude decir.
F#m
Bm7
Y si el viento hoy sopla a tu favor
E
C#7
yo no te guardar rencor.
D E
A (G#)
No, claro que s perder
F#m
E D (C#)
no ser la primera vez
Bm7
Bm7/A G A D
hoy te vas tu y maana me ir yo
E
A (G#)
ser un buen perdedor
F#m
E D (C#)
el mundo no cambiar,
Bm7
(A) G
alguien sin duda ocupa
A D
tu lugar.
F#m
Bm7
Sin embargo, esperaba que te quedaras,
E
A
pero el agua hay que dejarla correr,
D
D9
mintras yo me tragaba palabras
C#7
C#7sus4
que no pude decir.
F#m
Y si el viento hoy sopla ......
E
A
Ser un buen perdedor.

EL ACORDE DE E+5 ES (*11200)...la primera cuerda


no se toca en el intro y para pasar de (Am)a (Am/G#)
es siguiendo esta secuencia arepejeando
de(555*o*)a(555**4)y luego ya sigue F#m ,E ,D
es todo espero que le entiendan....
intro: Am , E+5 , Am7 , E+5 ) * 2
EN LAS PARTES DONDE SE TOCA EL INTRO LO PUSE COMO (**)
(**)
Ojal que las hojas no te toquen el cuerpo
cuando caigan,
G
Am
para que no las puedas convertir en cristal.
Bm
E7
Am
Ojal que la lluvia deje de ser milagro que
Am/G#
F#m E , D
baja por tu cuerpo.
C#7 F#m
Bsus4,B,Am
Ojal que la luna pueda salir sin ti.
Am/G
F
E7
Am
Ojal que la tierra no te bese los pasos.
(**)
G
Ojal se te acabe la mirada constante,
C
la palabra precisa, la sonrisa perfecta.
D
G
Ojal pase algo que te borre de pronto,
B7
Em
C
una luz cegadora, un disparo de nieve.
D
G
Ojal por lo menos que me lleve la muerte,
B7
Em
C
para no verte tanto, para no verte siempre.
Am (**)
G
En todos los segundos, en todas las visiones.
C
D
Am(**)
Ojal que no pueda tocarte ni en canciones.
(**)
Ojal que la aurora, no de gritos que caigan
en mi espalda.
G
Am
Ojal que tu nombre, se le olvide a esa voz.
Bm
E7
Am
Ojal las paredes no retengan tu ruido de
Am/G#
F#m E,D
camino cansado.
C#7
F#m

Bsus4,B

Am

Ojal que el deseo se vaya tras de ti,


Am/G F
E7
Am
a tu viejo gobierno de difuntos y flores.

(**)

G
Ojal se te acabe la mirada constante,

(pasatono) C
la palabra precisa, la sonrisa perfecta.
D
G
Ojal pase algo que te borre de pronto,
B7
Em
C
una luz cegadora, un disparo de nieve.
D
G
Ojal por lo menos que me lleve la muerte,
B7
Em
para no verte tanto, para no verte
C
siempre
Am(**)
G
En todos los segundos, en todas las visiones.
C
D,D9,D
Ojal que no pueda
D/F#
Am,C,D,G ,C,D,G
tocarte ni en canciones.
Am
A*
Am7 A*
6 -----------------------------------0h2---5 --0--------0--------0--------0-----------4 ----2--------2--------2--------2---------3 -----2--------1--------0--------1--------2 ------1--------1--------1--------1-------1 -------0--------0--------0---------------Am
A*
Am7 A*
6 -----------------------------------0h2---5 --0--------0--------0--------0-----------4 ----2--------2--------2--------2---------3 -----2--------1--------0--------1--------2 ------1--------1--------1--------1-------1 -------0--------0--------0---------------Am
A*
Am7
A*
6 -----------------------------------------5 --0---------0---------0---------0--------4 ----2---------2---------2---------2------3 ------2---------1---------0---------1----2 --------1---------1---------1---------1--1 ----------0---------0---------0---------0Ojala que las hojas no te toquen el
Am
A*
Am7
A*
6 -------------------------------------------0h25 --0---------0---------0---------0--------------

4 ----2---------2---------2---------2-----------3 ------2---------1---------0---------1---------2 --------1---------1---------1---------1-------1 ----------0---------0---------0---------0-----cuerpo cuando caigan


G
G
G
G
6 -3---------3---------3---------3-----------5 -------------------------------------------4 ---0---------0---------0---------0---------3 -----0---------0---------0---------0-------2 -------3---------3---------3---------3-----1 ---------3---------3---------3---------3----para que no las puedas convertir
Am
A*
Am7
A*
6 -------------------------------------------0h2
5 --0---------0---------0---------0------------4 ----2---------2---------2---------2----------3 ------2---------1---------0---------1--------2 --------1---------1---------1---------1------1 ----------0---------0---------0---------0----en crista-a-al
G
G
E
E
6 -3---------3---------0---------0-----------5 -------------------------------------------4 ---0---------0---------2---------2---------3 -----0---------0---------1---------1-------2 -------3---------3---------0---------0-----1 ---------3---------3---------0---------0---ojala que la lluvia deje de ser el
Am
C#m
F#m
F#m
6 ------------4----------2----------2----------5 --0------------------------------------------4 ----2---------6----------4----------4--------3 ------2---------6----------2----------2------2 --------1---------5----------2----------2----1 ----------0---------4----------2----------2--milagro que vaga por tu cuerpo
C#m
C#
C#m
C#m
6 ----------------------------------------------5 --4----------4----------4----------4----------4 ----6----------6----------6----------6--------3 ------6----------6----------6----------6------2 --------5----------6----------5----------5----1 ----------4----------4----------4----------4--ojala que el deseo se vaya tras de
F#m
F#m*
B7
B7
6 ------------------------------------x--5 --4----------2-----------2----------2--4 ----4----------2-----------4--------4--3 ------2----------2-----------2------2---

2 --------2----------2-----------4----4--1 ----------2----------2-----------2--2--ti.
Am
A*
Am
E
6 --------------------------------0-------------5 --0---------0---------0-----------------------4 ----2---------2---------2---------2-----------3 ------2---------1---------2---------1---------2 --------1---------1---------1---------0-------1 ----------0---------0---------0---------0-----ojala que la tierra no te bese
Am
A*
Am7
A*
6 ----------------------------------------------5 --0---------0---------0---------0-------------4 ----2---------2---------2---------2-----------3 ------2---------1---------0---------1---------2 --------1---------1---------1---------1-------1 ----------0---------0---------0---------0-----los paso-o-os
Am
A*
Am7
A*
6 -------------------------------------------0h25 --0---------0---------0---------0-------------4 ----2---------2---------2---------2-----------3 ------2---------1---------0---------1---------2 --------1---------1---------1---------1-------1 ----------0---------0---------0---------0-----ojala se te acabe la mirada consG
G
G
G
6 -3---------3---------3---------3-----------5 -------------------------------------------4 ---0---------0---------0---------0---------3 -----0---------0---------0---------0-------2 -------3---------3---------3---------3-----1 ---------3---------3---------3---------3----tante la palabra precisa la sonrisa perC*
C
6 --------------------5 --3----------3------4 ----2---------2-----3 ------0--------0----2 --------1-------1---1 ----------3------3--fecta, ojala pase
D
G
Em
algo que te borre de pronto, una luz cegadora,
C
un disparo de nieve
D
G
ojala por lo menos que lleve la muerte
Em
C

para no verte tanto, para no verte siempre


en todos los segunAm
A*
Am7
A*
6 -------------------------------------------0h2
5 --0---------0---------0---------0------------4 ----2---------2---------2---------2----------3 ------2---------1---------0---------1--------2 --------1---------1---------1---------1------1 ----------0---------0---------0---------0-----dos
G
G
G
G
6 -3---------3---------3---------3-----------5 -------------------------------------------4 ---0---------0---------0---------0---------3 -----0---------0---------0---------0-------2 -------3---------3---------3---------3-----1 ---------3---------3---------3---------3---en todas las visione-e-e-s
Cm
Cm
D
D*D D D9 D D
6 ---------------------------------x-x-x-x-x-x-x-5 -3----------3--------------------0-0-0-0-0-0-0-4 ---5----------5--------0---------0-0-0-0-0-0-0-3 -----5----------5---------2------2-2-2-2-2-2-2-2 -------4----------4---------3----3-3-3-3-3-3-3-1 ---------3----------3---------2--3h2-2-0-0h2-2-ojala que no pueda
tocarte
Am
A*
Am7
A*
6 -------------------------------------------5 --0---------0---------0---------0----------4 ----2---------2---------2---------2--------3 ------2---------1---------0---------1------2 --------1---------1---------1---------1----1 ----------0---------0---------0---------0--ni en canciones
Am
A*
Am7
A*
6 -------------------------------------------0h25 --0---------0---------0---------0-------------4 ----2---------2---------2---------2-----------3 ------2---------1---------0---------1---------2 --------1---------1---------1---------1-------1 ----------0---------0---------0---------0-----Am
A*
Am7
A*
6 -----------------------------------------5 --0---------0---------0---------0--------4 ----2---------2---------2---------2------3 ------2---------1---------0---------1-----

2 --------1---------1---------1---------1--1 ----------0---------0---------0---------0Ojala que la aurora no de gritos


Am
A*
Am7
A*
6 -------------------------------------------0h25 --0---------0---------0---------0-------------4 ----2---------2---------2---------2-----------3 ------2---------1---------0---------1---------2 --------1---------1---------1---------1-------1 ----------0---------0---------0---------0-----que caigan en mi espald-a-a-a
G
G
G
G
6 -3---------3---------3---------3-----------5 -------------------------------------------4 ---0---------0---------0---------0---------3 -----0---------0---------0---------0-------2 -------3---------3---------3---------3-----1 ---------3---------3---------3---------3----ojala que tu nombre se le olvide
Am
A*
Am7
A*
6 -------------------------------------------0h2
5 --0---------0---------0---------0------------4 ----2---------2---------2---------2----------3 ------2---------1---------0---------1--------2 --------1---------1---------1---------1------1 ----------0---------0---------0---------0----a esta vo-oz
G
G
E
E
6 -3---------3---------0---------0-----------5 -------------------------------------------4 ---0---------0---------2---------2---------3 -----0---------0---------1---------1-------2 -------3---------3---------0---------0-----1 ---------3---------3---------0---------0---ojala las paredes no retengan tu
Am
C#m
F#m
F#m
6 ------------4----------2----------2----------5 --0------------------------------------------4 ----2---------6----------4----------4--------3 ------2---------6----------2----------2------2 --------1---------5----------2----------2----1 ----------0---------4----------2----------2--ruido de camino cansado
C#m
C#
C#m
C#m
6 ----------------------------------------------5 --4----------4----------4----------4----------4 ----6----------6----------6----------6--------3 ------6----------6----------6----------6------2 --------5----------6----------5----------5----1 ----------4----------4----------4----------4---

ojala que la luna pueda salir sin


F#m
F#m*
B7
B7
6 ------------------------------------x--5 --4----------2-----------2----------2--4 ----4----------2-----------4--------4--3 ------2----------2-----------2------2--2 --------2----------2-----------4----4--1 ----------2----------2-----------2--2--- B7
ti.
Am
A*
Am
E
6 --------------------------------0-------------5 --0---------0---------0-----------------------4 ----2---------2---------2---------2-----------3 ------2---------1---------2---------1---------2 --------1---------1---------1---------0-------1 ----------0---------0---------0---------0-----a tu viejo gobierno de difuntos y
Am
A*
Am7
A*
6 ----------------------------------------------5 --0---------0---------0---------0-------------4 ----2---------2---------2---------2-----------3 ------2---------1---------0---------1---------2 --------1---------1---------1---------1-------1 ----------0---------0---------0---------0-----flo-o-re-e-e-e-es
Am
A*
Am7
A*
6 ----------------------------------------------5 --0---------0---------0---------0-------------4 ----2---------2---------2---------2-----------3 ------2---------1---------0---------1---------2 --------1---------1---------1---------1-------1 ----------0---------0---------0---------0-----ojala se te acabe la mirada consG
G
G
G
6 -3---------3---------3----------3---------5 ------------------------------------0-2---4 ---0---------0---------0------------------3 -----0---------0---------0----------------2 -------3---------3---------3--------------1 ---------3---------3---------3-------------tante la palabra precisa la sonrisa perC*
C
6 ----------------------5 --3----------3--------4 ----2----------2------3 ------0----------0----2 --------1----------1--1 ----------3----------3fecta, ojala pase

D
G
Em
algo que te borre de pronto, una luz cegadora,
C
un disparo de nieve
D
G
ojala por lo menos que lleve la muerte
Em
C
para no verte tanto, para no verte siempre
en todos los segunAm
A*
Am7
A*
6 -------------------------------------------0h2
5 --0---------0---------0---------0------------4 ----2---------2---------2---------2----------3 ------2---------1---------0---------1--------2 --------1---------1---------1---------1------1 ----------0---------0---------0---------0-----dos
G
G
G
G
6 -3---------3---------3---------3-----------5 -------------------------------------------4 ---0---------0---------0---------0---------3 -----0---------0---------0---------0-------2 -------3---------3---------3---------3-----1 ---------3---------3---------3---------3---en todas las visione-e-e-s
Cm
Cm
D
D*D D D9 D D
6 ---------------------------------x-x-x-x-x-x-x-5 -3----------3--------------------0-0-0-0-0-0-0-4 ---5----------5--------0---------0-0-0-0-0-0-0-3 -----5----------5---------2------2-2-2-2-2-2-2-2 -------4----------4---------3----3-3-3-3-3-3-3-1 ---------3----------3---------2--3h2-2-0-0h2-2-ojala que no pueda
D-D
G
Em C (bis)
tocarte ni en cancioness
Man - Baila Morena
Intro:
El intro es ms que nada solm con arreglos... ecuchen la cancion.
Esto lo tocas en todos los versos, es lo que ms se le parece a la cancion
Solm
Do La#
mi ------------------------------------------si ------------------------------------------sol------------------------------------------re ------x-5-x-x-x-5-x-x-x-5-x-x-10-10-8-----la ------x-5-x-x-x-5-x-x-x-5-x-x-10-10-8------

mi ----3-x-3-x-x-x-3-x-x-x-3-x-x-8--8--6-----Verso 1:
Solm
Do La#
Creo en los milagros desde que te v
Solm
Do La#
en esta noche de tequila boom boom
Solm
Do La#
eres tan sexy, eres, sexy thing
Solm
Do La#
mis ojos te persiguen slo a ti
Solm7 Do x2
Verso 2:
Solm
Do La#
Y debe haber un caos dentro de t
Solm
Do La#
para que brote as una estrella que baila
Solm
Do La#
Infierno y paraso dentro de ti
Solm
Do La#
la luna y su sol mira, como brillan
puente:
Do Fa
Solm La#
Baby, the night is on fire
Fa
Seamos fuego en el cielo
Re7
llamas en lo oscuro
what you say?!
coro:
Solm Re#
Baila,
La# Fa
baila morena
Solm Re#
bajo esta luna llena
La# Fa
under the moonlight,
Solm7 Do
under the moonlight
Solm 7 Do

verso 3:
Solm
Do La#
Ven chica, ven loca, dame tu boca
Solm
Do La#
que en esta noche cualquier cosa te toca
Solm
Do La#
mi corazn se revienta y no aguanto!
Solm
Do La#
morena, rebuena, te quiero yo tanto!
puente:
Do Fa
Solm La#
Baby, the night is on fire
Fa
Seamos fuego en el cielo
Re7
escandalo en lo oscuro
what you say?!
Coro:
Solm Re#
Baila,
La# Fa
baila morena
Solm Re#
bajo esta luna llena
La# Fa
under the moonlight,
Solm Re#
Baila,
La# Fa
under the moonlight
Solm Re#
bajo esta luna llena
La# Fa
baila morena
Solm7 Do
yeah yeah yeah!!
Solm7 Do (puedes tocar esto durante el solo)
Solm7 Do
Solm7 do
Solm7
Solm7

You got me hurtin'so bad


Solm7
C'mon, now now now...
Solm7
You let me sooo, soo, bad
Fa
What you saaayyy!?

Solm Re#
Baila,
La# Fa
baila morena
Solm Re#
bajo esta luna llena
La# Fa
under the moonlight,
Solm Re#
Baila,
La# Fa
under the moonlight
Solm Re#
bajo esta luna llena
La# Fa
baila morena
Outro:
Solm7 Do
Bajo esta luna llena
Solm7 Do
Bajo esta luna llena
Solm7 Do
Bajo esta luna llena
Solm7 Solm6 Do
Under the moonlight
Intro:
G - D - Em - C
G - Bm - C - D - Em
G
C
Rayando el sol
D
C
rayando por ti
G
esta pena me duele
C
D C
me quema sin tu amor

Bm
No me has llamado
C
D
estoy desesperado
Bm
son muchas lunas
C
D
las que te he llorado
Coro:
G
D
Rayando el sol, oe oh
Em
C
desesperacion
G
Bm
es mas facil llegar al sol
C
D
que a tu corazon
G
D
Me muero por ti , oe oh
Em
C
viviendo sin ti
G
Bm
y no aguanto me duele tanto
C
D
Em
estar asi,
rayando el sol
G
C
A tu casa yo fui
D
C
y no te encontre
G
C
en el parque, en la plaza, en el cine
D
C
yo te busque
Bm
C
Te tengo atrapada
D
entre mi piel y mi alma
Bm
C
mas ya no puedo tanto
D
y quiero estar junto a ti
Rayando el Sol...
TITULO.- RAYANDO EL SOL
GRUPO.- MANA

ARREGLO DESPUES DEL PRIMER CORO : (EL LIGADO ES " *" , Y EL SLIDE ES :
"/")
P.H. W/BAR
E |--12^--12*10---------------------------------------------------------------------------------------------------------|
B|-------------------12*10*12*12------8~~ ------------------------------------------------------------------------------|
G|----------------------------------------------------------------------------------------------------------------------|
D|----------------------------------------------------------------------------------------------------------------------|
A|----------------------------------------------------------------------------------------------------------------------|
E|----------------------------------------------------------------------------------------------------------------------|
SOLO CON (DISTORSION, FUZZ,REVERB,DELAY):
E|---10/12--12^---12*10*12^--------/10 * 12----10-----------------------------------------------------------------------|
B|-------------------------------------------------------------12--10---------------------------------------------------|
G|----------------------------------------------------------------------11/5---6/11-11-11-11--11*9/7--------------------|
D|-------------------------------------------------------------------------------------------------------------9--7--9-|
A|----------------------------------------------------------------------------------------------------------------------|
E|----------------------------------------------------------------------------------------------------------------------|
E|------------7-------------------------8----------------------------------12--12*14--12----------12--12/14--12-------B|------7-7-----10------------8----------8--------------7------10/12---------------------12--10-------------------------|
G|-7-7--------------9-------------9----------9-------------7------------------------------------------------------------|
D|----------------------10-----------------------10---------------------------------------------------------------------|
A|----------------------------------------------------------------------------------------------------------------------|
E|----------------------------------------------------------------------------------------------------------------------|
SIN DISTOR , CON CHORUS,REVERB Y DELAY:
E|----------10--8~~ 8/12~ -15--12~~ --12--10~~ --12-15-14-12------------------------------------------------------------|
B|---8*10-------------------------------------------------------------------------------------15-13*12---13-/-15------G|----------------------------------------------------------------------------------------------------------------------|
D|----------------------------------------------------------------------------------------------------------------------|
A|----------------------------------------------------------------------------------------------------------------------|
E|----------------------------------------------------------------------------------------------------------------------|
estos son los acordes correctos
A
Rayando el sol
D
E
rayando por ti
D A
esta pena me duele
D
E
me quema sin tu amor
D
C#m
No me has llamado
D
E
estoy desesperado
C#m
son muchas lunas
D
E
las que te he llorado

Coro:
A
E
Rayando el sol, oe oh
F#m
desesperacion
D
A
C#M
es mas facil llegar al sol
D
que a tu corazon
E
A
E
Me muero por ti , oe oh
F#m
viviendo sin ti
D
A
C#m
y no aguanto me duele tanto
D
E
F#m
estar asi,
rayando el sol
A
A tu casa yo fui
D
E
y no te encontre
D
A
D
en el parque, en la plaza, en el cine
E
yo te busque
D C#m
D
Te tengo atrapada
E
entre mi piel y mi alma
C#m
mas ya no puedo tanto
D
E
y quiero estar junto a ti
'SOY TU PADRE'
intro:
e-------0-------------0-------------0------B---------0-------------0-------------0----G-----0------5------2-----5-------0-----5--D---0-------------0-------------2----------A-2-------------0-------------2------------E------------------------------------------e--------0--------B----------0------G------0-----5----- LA INTRO DOS VECES.
D----2-------------

A--3--------------E-----------------ESTO ES ANTES DE ENTRAR AL CORO:


e--0-----0-----0-----------B----3-----3-----3---------G------2-----2-----2-------D--------------------------A--------------------------E--------------------------CORO:
e----------------------------B----------------------------G----------------------------D----4--2--0H2--0H2--2-------A-5--2--2--0H2--0H2--3-------E-3--------------------------e------------------B------------------G------------------D----4--5--7-------A-5--2--3--5-------E-3----------------Toda la cancion es muy facil y usa el formato de siempre, una guitarra
con el ritmo y otra con los arreglos!
riff 1
riff 2
riff 3
e|--5-7-5-3-2-3--|--5-7-8-10-8--|-5-7-5-3-7-8-7-|--------------------|
B|--5-7-5-3-3-3--|--5-7-8-10-8--|-5-7-5-3-7-8-7-|--------------------|
G|---------------|--------------|---------------|--------------------|
D|---------------|--------------|---------------|--------------------|
A|---------------|--------------|---------------|--------------------|
E|---------------|--------------|---------------|--------------------|
Intro:
G - D - Em - C
G - Bm - C - D - Em
G C
D C
Rayando el sol, rayando por ti
G
C
D C
esta pena me duele me quema sin tu amor (riff 1)
Bm
C
D
No me has llamado estoy desesperado (riff 2)
Bm
C
D
son muchas lunas las que te he llorado
Coro:
G
D
Rayando el sol,

Em C
desesperacion

G
Bm
C D
es mas facil llegar al sol que a tu corazon
G
D
Em C
Me muero por ti,
viviendo sin ti
\Entrada a solo/
G
Bm
C D
Em
(C.......
y no aguanto me duele tanto estar asi, rayando el sol
A tu casa yo fui y no te encontre (riff 1)
en el parque, en la plaza, en el cine yo te busque (riff 3)
Te tengo atrapada entre mi piel y mi alma (riff 2)
mas ya no puedo tanto y quiero estar junto a ti
Coro:
Solo:
(C)
(D)
(Bm)
(C)
E|-------------10h12-12--10h12-12-10--------12-10----------------10-12-14-10-12--12-12-12-14-15-14---|
B|----10-12-13------------------------10-10--------10-10-10------------------------------------------|
G|--12------------------------------------------------------12-11------------------------------------|
D|---------------------------------------------------------------------------------------------------|
A|---------------------------------------------------------------------------------------------------|
E|---------------------------------------------------------------------------------------------------|
........................................
E|-12h14-11----------------------------|
B|---------12--------------------------|
G|-----------11-9-8--------------------|
D|-------------------7-5-4-5-4---------|
A|-----------------------------7-5/7~~-|
E|-------------------------------------| Interlude Armonica: Intro
Rayando el sol, (rayando...rayando) (Bis)
ay ay ay ay ay ay! Rayando el sol...
Solo Final: (Se acompaa con los acordes del coro!)
e|------------------------------7---5---3-3-3-3-3~--3-5-7-7---|
B|---------5----------------------3---3-----------------------|
G|-----4-5---5-7-7-7-7~~~-5-7-5-------------------------------|
D|-5-7--------------------------------------------------------|
A|------------------------------------------------------------|
E|------------------------------------------------------------|
E|-7-7-7-7-7-8--7-7-5--5-5-7-5-5-3--3-3-3-2----8-8-7-5-3~-----|
B|-8-8-8-8-8-10-8-8-7--7-7-8-7-7-5--5-5-5-3-------------------|
G|------------------------------------------------------------|
D|------------------------------------------------------------|
A|------------------------------------------------------------|
E|------------------------------------------------------------| (Fin)
Intro: (mientras se canta el coro, se toca el intro
como fondo tambin, es casi igual, solo se saltan la
ltima nota, la de Em, cuando tengan que volver a
empezar el intro)

(D)....

G
D
Em
C
e ------------------------------------------B ----8-------7-----------8-------8---------G --7-----7-7---------7/9-----9-9-----------D ------9-------7-7-9-------9-------10-10-9-A ------------------------------------------E ------------------------------------------G
Bm
C
D
Em
e --------------------------------------------------B ----8-------7-------------------------7-----------G --7-----7-7-------7----9-----------7--------------D ------9-------9-9---10------7-9-10------7-7--9----A -------------------------10---------------------7-E --------------------------------------------------GC
DC
Rayando el sol rayando por ti
G
C
DC
esta pena me duele me quema sin tu amor
e --5--5-7-5-3-2-0-B -----------------G --5--5-7-5-3-3-0-D -----------------A -----------------E -----------------Bm
C
D
No me has llamado estoy desesperado
e --5--5-7-8-10-8-7-B ------------------G --5--5-7-8-10-8-7-D ------------------A ------------------E ------------------Bm
C
D
son muchas lunas las que te he llorado
GD
Em C
Rayando el sol desesperacion
G
Bm
CD
es mas facil llegar al sol que a tu corazon
GD
Em C
Me muero por ti viviendo sin ti
G
Bm
CD
y no aguanto me duele tanto estar asi
Em
rayando el sol
GC
DC
A tu casa yo fui y no te encontre
e --5--5-5/7-5-3-2-0--

B -------------------G --5--5-5/7-5-3-3-0-D -------------------A -------------------E -------------------G


C
DC
en el parque, en la plaza, en el cine yo te busque
e --5--5-7-5-7-8-7-B -----------------G --5--5-7-5-7-8-7-D -----------------A -----------------E -----------------Bm
C
D
Te tengo atrapada entre mi piel y mi alma
e --5-7-8-10-8-7-B ---------------G --5-7-8-10-8-7-D ---------------A ---------------E ---------------Bm
C
D
mas ya no puedo tanto y quiero estar junto a ti
GD
Em C
Rayando el sol desesperacion
G
Bm
CD
es mas facil llegar al sol que a tu corazon
GD
Em C
Me muero por ti viviendo sin ti
G
Bm
CD
y no aguanto me duele tanto estar asi
Em
rayando el sol
C
D
E ----------8-10^12-10/12--10--5-5--12-10--5-4/5--5-3-2-B --8-10-12---------------------------------------------G ------------------11/12--11--5-5--12-11--5-4/5--5-4-2-D ------------------------------------------------------A ------------------------------------------------------E ------------------------------------------------------Bm
C
E --10-12-14-10-12--12-12-12-14-15^14--14-B ----------------------------------------G ----------------------------------------D ----------------------------------------A ----------------------------------------E ----------------------------------------D

e --14^15-15---------------------------------------------B -----------15------------------------------------------G --------------14-12-11^12^11---------------------------D -----------------------------12------------------------A --------------------------------12-10-9-9^10-----------E ---------------------------------------------12-10/12~-G D Em C G Bm C D


(solo en la armonica)
GD
Em C
Rayando el sol desesperacion
G
Bm
CD
es mas facil llegar al sol que a tu corazon
GD
Em C
Me muero por ti viviendo sin ti
G
Bm
CD
y no aguanto me duele tanto estar asi
G
D Em
C
rayando el sol (rayando, rayando)
G
Bm
C
Rayando el sol, (rayando, rayando)
D
G
ay ay ay ay ay ay! Rayando el sol...
G
D
Em
C
e ------------------------------7---5---3-3-3-3-3--3-5-7-7-B ----------5---------------------3---3----------------8-8-G ------4-5---5-7-7-7-7---5-7-5----------------------------D --5-7----------------------------------------------------A ---------------------------------------------------------E ---------------------------------------------------------G
Bm
C
D
G
e --7-7--7-7-7-8--7-7-5--5-5-5-7-5-5-7-3--3-3-3-2-----------3-B --8-8--8-8-8-10-8-8-7--7-7-7-8-7-7-8-5--5-5-5-3--1-1------0-G -------------------------------------------------0-0--4-2-0-D ------------------------------------------------------4-2-0-A ----------------------------------------------------------2-E ----------------------------------------------------------3
En esta cancin se usan 5 acordes, despus de un rato se te va hacer fcil.
G
C
Rayando el sol
D
C
rayando por ti
G
esta pena me duele
C
D C
me quema sin tu amor
Bm
No me has llamado
C
D

estoy desesperado
Bm
son muchas lunas
C
D
las que te he llorado
G
D
Rayando el sol, oe oh
Em
C
desesperacin
G
Bm
es mas fcil llegar al sol
C
D
que a tu corazon
G
D
Me muero por ti , oe oh
Em
C
viviendo sin ti
G
Bm
y no aguanto me duele tanto
C
D
Em
estar asi,
rayando el sol
G
C
A tu casa yo fui
D
C
y no te encontr
G
C
en el parque, en la plaza, en el cine
D
C
yo te busque
Bm
C
Te tengo atrapada
D
entre mi piel y mi alma
Bm
C
mas ya no puedo tanto
D
y quiero estar junto a ti.

INTRO]
G
D
Em7
Cadd9
e-------7----|--------------|--------7---|--------8-8---------B-----8----8-|-----7--10-10-|-----8----8-|-----8--------------G--7---------|-77-----------|--9---------|-79----------9------D------------|--------------|------------|--------------------A------------|--------------|------------|---------------------

E------------|--------------|------------|--------------------G
Bm7
C9
D
Em
-------7----|-------77----|------3------|-------55--|--3----0-0-0-0--0-0------------8------|----7--------|----5-----5--|-3--7------|--3----0-0-0-0--0-0---------7-------7-|-7---------7-|-5------5----|-----------|--0----0-0-0-0--0-0-------------------|-------------|-------------|-----------|--2----2-----2----2-------------------|-------------|-------------|-----------|--2-----------------------------------|-------------|-------------|-----------|--0-----------------------[VERSE]
G C
D Cadd9
-------------3----0-------------2-------0--------------------3----1-------------3-------3--------------------0----0-------------2-------0--------------------0----2-------------3-------2--------------------2----3-------------4-------3--------------------3----3-----------------------------Rayando el sol
rayando por ti
G
Cadd9
D
-------------------------------------------5-7--5------------------------------------------------------------------8--7--5-------------------------------------------------2-4--2------------------------------------------------------------------5--4--2--------------------------------------------------------------------------------------------------------------------------------------esta pena me duele me quema sin tu amor
|----slow-----|
Bm
C
D
(Bm)
------------7----------------3----2-------5-5---7--8--10--8--7-------------------7----------------3----3--------------------------------------------7----------------0--------------2-2---4--5--7---5--4---------------9----------------2--------0---------------------------------------------------------3---------------------------------------------------7--------------------------------------------------------------No me has llamado estoy desesperado
Bm
C
D
------------------------------------------5-5--5------------------------------------------------------------------------------------------------------------2-2--2------------------------------------------------------------------------------------------------------------5-5--5------------------------------------------------------------------son muchas lunas las que te he llorado
[CHORUS]
G
D
Em7
Cadd9
-------7----|--------------|--------7---|--------8-8-------------8----8-|-----7--10-10-|-----8----8-|-----8--------------

--7---------|-77-----------|--9---------|-79----------9-----------------|--------------|------------|-------------------------------|--------------|------------|-------------------------------|--------------|------------|-------------------[second time]
G
Bm7
C9
D
Em
-------7----|-------77----|------3------|-------55--|
------------0--------8------|----7--------|----5-----5--|-3--7------|
----------0-------7-------7-|-7---------7-|-5------5----|-----------|
--------0-------------------|-------------|-------------|-----------|
------2---------------------|-------------|-------------|-----------|
----2-----------------------|-------------|-------------|-----------| [2x]
--0--------------

[VERSE]
come in on

1+
|-fast-|
G
C
D C
--------------------5-5-----3-3------------------5-5---5/7-5----------------------------------5-5--5--5-5-------------------------------8--7---------------------------------5-----------------------2-2---2/4-2-------------------------------5--------------------------------------------5--4------------------------------------------------------------------------------------------------3-----------------------------------------------------------A tu casa yo fui
y no te encontr
[__________PalmMute_________________________]
fast
G
C
D
|
----------3-----3-------------------3-------------------5---5-5/7--5-----7--8--7------------3-----33---3--------------5-----5-1--1-3/5-3-------------------8----------------------------------------------------------------------2---2-2/4--2-----4--5--4---------------------------------------------------------------------------5----------------------------------------------------------------------------------------------------------------------------------------------------------------------------------------en el parque en la plaza en el cine yo te busque
Bm
C
D
Bm7
D
-------------7--------------------------------55--7--8--10--8--7-7--10--7--8-8--12--8--8/10----------14-14~~-----------7--7---8---------------------------------------------------------------------------------------------------7------7-9----------------------------22--4--5--7---5--4-4--7---4--5-5--9---5--5/7-----------11-11~~------9---------------------------------------------------------------------------------------------------------------------------------------------------------------------------------------------------------------------------------------------------------------------------------------------------------------------------------Te tengo atrapada entre mi piel y mi alma
ya no puedo tanto quiero estar junto a ti.
[CHORUS]
G
D
Em7
Cadd9
-------7----|--------------|--------7---|--------8-8-------------8----8-|-----7--10-10-|-----8----8-|-----8---------------7---------|-77-----------|--9---------|-79----------9------

------------|--------------|------------|-------------------------------|--------------|------------|-------------------------------|--------------|------------|-------------------G
Bm7
C9
D
-------7----|-------77----|------3------|-------55--|
-----8------|----7--------|----5-----5--|-3--7------|
--7-------7-|-7---------7-|-5------5----|-----------|
------------|-------------|-------------|-----------|
------------|-------------|-------------|-----------|
------------|-------------|-------------|-----------| [2x]

(straight to the solo)

[SOLO]
[light PM]
--3--5--7--8-------12---5/1212-10--55--12-10-5-5--5-3-2--------10-12-14-10-12----------------------------------------------------------------------10-------------------------4--5--7--9--11/12-----5/1212-11--55--12-11-5-5--5-4-2----11-------------------------------------------------------------------------------------------------------------------------------------------------------------------------------------------------------------------------------------------------------------------------------------------[fast]
[fast]
[Em]
-121212-14-15-15p14---14h15p14---------------------------------------------------------------------------15---------------------------------------------------------------------------14-12-11---------------------------------------------------------------------------12---------------------------------------------------------------------------12-10-9-10-9----------------------------------------------------------------------------10-11-12------------[BREAK]
Emsus
Bm C
D(i)
Em(i) Bm7 Cadd9 Dsus2
--[3]------3-----[2]----[3]----3----[5]------5--|---7-------7---------------------------------[3]----3---3---[3]----[1]--1---1--[7]-----7---|---8-------7-----3--5--8--7--8--8/10---------[0]------------[4]----[0]---------[7]----7----|---9-------7-----5--5--7--7--7--7/9----------[2]------------[4]----[2]---------[7]---7-----|---9-------7---------------------------------[2]------------[2]----[3]---------[5]---------|---7-------9---------------------------------[0]-------------------------------------------|--------------------------------------------

[CHORUS]
G
D
Em7
Cadd9
-------7----|--------------|--------7---|--------8-8-------------8----8-|-----7--10-10-|-----8----8-|-----8---------------7---------|-77-----------|--9---------|-79----------9-----------------|--------------|------------|-------------------------------|--------------|------------|-------------------------------|--------------|------------|--------------------

G
Bm7
C9
D
-------7----|-------77----|------3------|-------55--|
-----8------|----7--------|----5-----5--|-3--7------|
--7-------7-|-7---------7-|-5------5----|-----------|
------------|-------------|-------------|-----------|
------------|-------------|-------------|-----------|
------------|-------------|-------------|-----------| [3x] [fourth time to the outro]
[OUTRO]
G
D
Em
C
G
D
C
D
G [hold]
--------------------|---------------------|-----------|--5/7-7--777--8-7-7-5--555--7-5-5-7-3---3-3--2-----------3--------------------------|---------81078-88888-|-8-10-1212-|--7/8-8--888--8-8-8-7--777--8-7-7-8-5---5-5--3---5-5-3-10------------4-5-95-7-7777-|-5-754-7-------------|-----------|-------------------------------------------------5-5-4-2-0--------5-7---------------|---------------------|-----------|------------------------------------------------------------------------------------|---------------------|-----------|------------------------------------------------------------------------------------|---------------------|-----------|----------------------------------------------------------------Intro :
E -----4-----7------4------------4-----7-7---4----B ---5---5------5-----5--------5---5------------7-G -4-------4------4----------4-------4-----4------D ------------------------------------------------A ------------------------------------------------E ------------------------------------------------E -----4-----7------4------------4-----7-7---4----B ---5---5------5-----5--------5---5------------7-G -4-------4------4----------4-------4-----4------D ------------------------------------------------A ------------------------------------------------E ------------------------------------------------E -----4-----7------4------------4-----4-7-4------B ---5---5------5-----5--------5---5---5-9-5--5-7-5
G -4-------4------4----------4-------4--------4-6-4
D ------------------------------------------------A ------------------------------------------------E -------------------------------------------------

1. E
B
Yo aqu llorandote un ro
Cm#
lanzandome al olvido
B
que cosa ms injusta amor
E
B
Fuiste matando mis pasiones
Cm#

tachando mis canciones


A
me tenas pisoteado
B
estaba desahuciado
Cm#
B
No es justo, no beb Oh oh e oh %

PRE CORO :
B A# A
B
Pero este mundo ya gir
Cm#
B
y ahora te toca perder Oh oh e oh
CORO: (entre parntesis las vocales de fondo)
(aqu hay una guitarra de fondo tocando el Riff del Intro)
E Cm#
A
B
Bebe te llor todo un ro (oh bebe bebe)
E Cm#
A
B
Bebe te llor a reventar (oh bebe bebe)
E Cm#
A B
Oh no no nooo, no tienes corazn (noo)
E
No te vuelvo a amar
Cm#
A
Te llor todo un ro
B
E
ahora llorame un mar

2.(Siguiendo los mismos acordes)


Ya no me busques ya es muy tarde
ya tengo otro amor
una chula sirena que nada en mi piel
Yo te perdono no hay rencores
tan slo los dolores
Mi alma est araada
llor el suelo mojado
No es justo no beb oh oh e oh
PRE CORO
CORO
SOLO DE GUITARRA
Cuando se toca esta parte ocurre lo mismo que enel coro, una guitarra
de fondo toca el Riff del Intro.

E
Cm#
A
B
Verdad que un ro te llor, verdad que no te vuelvo a
E
Cm#
A
oh no no no, no te vuelvo a amar (uh uh uh)
Repite esto 3 veces, pero la segunda vez en vez de tocar la segunda
linea toca:
E
Cm#
A
oh no no no, pierdete en tu mar
Y la tercera vez, en vez de la segunda linea toca
E
Cm#
A
llrame llrame llrame
Chords used : D, A, Bm, G
Intro :
E -----2-----5------2------------2-----0-0---0----B ---3---3------3-----3--------3---3------------3-G -2-------2------2-----2----2-------2-----2------D ------------------------------------------------A ------------------------------------------------E ------------------------------------------------* Let call this #, where this # appears play this
D
E ------------------2----B ------3-2-0-2-0-2-3----G ------------------2----D -----------------------A -----------------------E -----------------------* Lets call this %, where % appears play this
E -2-3-5-3-2-3-----------B -------------3-3-2-0---G -----------------------D -----------------------A -----------------------E -----------------------1. Yo aqu llorandote un rio
D
A
lanzandome al olvido
Bm
que cosa mas injusta amor

amar

A
#
Fuiste matando mis pasiones
D
A
tachando mis canciones
Bm
me tenias pisoteado
G
estaba desahuciado
A
No es justo, no beb Oh oh e oh %
Bm
A
PRE CHORUS :
Pero este mundo ya gir
G
A
y ahora te toca perder Oh oh e oh
Bm
CHORUS :(in parenthesis are background vocals)
(here theres a background guitar playing the Intro riff)
Bebe te llor todo un ro (oh bebe bebe)
D Bm
G
A
Bebe te llor a reventar (oh bebe bebe)
D Bm
G
A
Oh no no nooo, no tienes corazn (noo)
D
Bm
G A
No te vuelvo a amar
D
Te llor todo un ro
Bm
G
ahora llorame un mar
A
D
2.(Follow the same pattern)
Ya no me busques ya es muy tarde
ya tengo otro amor
una chula sirena que nada en mi piel
Yo te perdono no hay rencores
tan solo los dolores
Mi alma est araada
llor el suelo mojado
No es justo no beb oh oh e oh
PRE CHORUS
CHORUS
GUITAR SOLO
Then when playing this part happens the same as in chorus, a background
guitar plays the intro riff

Verdad que un ro te llor, verdad que no te vuelvo a amar


D
Bm
G
A
oh no no no, no te vuelvo a amar (uh uh uh)
D
Bm
G
Repeat this 3 times but the second time instead of the second line play
oh no no no, pierdete en tu mar
D
Bm
G
and the third time instead of the second line play
llorame llorame llorame
D
Bm
G
Fade out
Tabulatura:
h hammer --> se toca la primera nota y sin soltarla se hace sonar la otra
/ slide --> se toca la primera nota y se desliza el dedo a la siguiente
(- - -) --> se tocan las notas dentro del parentesis muy rpido
Intro.
E
C#m
A
B
E|--------------------------------------------------------------------------A|--------------------------------------------------------------------------D|--------------------------------------------------------------------------G|----4-----------4--------4--------4----4-----------4--------4--------4----B|-------5-----5--------5--------5----------5-----5------7-7--------5-------e|----------4--------7--------4----------------4-----------------4----------Se toca primero solo este riff con una guitarra 2 veces.
La tercera y cuarta vez se hacen con otra guitarra los acordes mientras se hace el riff.
E
B
Yo aqu llorandote un rio
C#m
mandandome al olvido
B
que cosa mas injusta amor
E
B
Fuiste matando mis pasiones
C#m
tachando mis canciones
A
me tenas pisoteado
B
estaba deshauciado
C#m
B B-A#-A
no es justo no bebe

A
pero este mundo ya gir
C#m
y ahora te toc perder
B
Oh Oh Eo

*CORO* (1a guitarra toca la intro)


E C#m
A
Bebe, te llor todo un rio
B
Bebe, Bebe
E C#m
A
Bebe, te llor a reventar
B
Bebe, Bebe
E
C#m
A
Oh no, no, no, no tienes corazn
B
no te vuelva a amar
E
C#m
te llor todo un rio
A
B
ahora llorame un mar
E
B
Ya no me busques ya es muy tarde
C#m
ya tengo otro amor
B
E
una chula sirena que nada en mi piel
E
B
Yo te perdono no hay rencores
C#m
solo los dolores
A
mi alma est araada
B
llor en suelo mojado
C#m
B B-A#-A
no es justo no bebe
A
B
pero este mundo ya gir
C#m
y ahora te toc perder
B
Oh Oh Eo
*CORO* (1a guitarra toca la intro)
E C#m
A
Bebe, te llor todo un rio

B
Bebe, Bebe
E C#m
A
Bebe, te llor a reventar
B
Bebe, Bebe
E
C#m
A
Oh no, no, no, no tienes corazn
B
no te vuelva a amar
E
C#m
te llor todo un rio
A
B
ahora llorame un mar
Solo.
E|--------------------------------------------------------------------------------------------A|----2--4------------------------------------------------------------------------------------D|----------1--2--4---------------------------------------------------------------------------G|-------------------1h2----------------------------------------------------------------------B|--------------------------/14--14--14--12--12--12--10--10--10--7----7--7----/14--11---------e|--------------------------/12--12--12--11--11--11---9---9---9--9----9-----9-/12--12---------E|--------------------------------------------------------------------------------------------A|--------------------------------------------------------------------------------------------D|--------------------------------------------------------------------------------------------G|------6h9-------------------------------------------------------12--------------------------B|-----------5h6h8-----------6--6/8/10-(10-10-10)--10--10/11--11------11----------------------e|------------------8--6--5-----------------------------------------------10--13--12----------(1a guitarra toca la intro)
E
C#m
De verdad que un rio te llor
A
B
de verdad que no te vuelvo a amar
E
Oh, no no no
C#m
A
no te vuelvo a amar
B
Uuuuuu Uuuuuu Uuuuuu
E
C#m
De verdad que un rio te llor
A
B
de verdad que no te vuelvo a amar
E
Oh, no no no
C#m
A
pierde el tiempo amor
B
Uuuuuu Uuuuuu Uuuuuu
E

C#m

De verdad que un rio te llor


A
B
de verdad que no te vuelvo a amar
E
Oh, no no no
C#m
A
llorame
B
E
Uuuuuu Uuuuuu Uuuuuu
Intro: E - C#m - A - B X 2
|-----------7------------------------------|
|-----9-----------9--------9-----7-7---9-7-|
|---9---9-----9-----9----9---9-------------| X 2
|-9-------9-----9------9-------9-----9-----|
|------------------------------------------|
|------------------------------------------|
*
|-----------7--------------------5/7-------|
|-----9-----------9--------9-----5/7-9-----|
|---9---9-----9-----9----9---9-------9-9-9-|
|-9-------9-----9------9-------9-------9-9-|
|------------------------------------------|
|------------------------------------------|
Versos
E
B
C#m
Yo aqu llorndote un ro mandndome al olvido
B
Que cosa ms injusta amor
E
B
Fuiste matando mis pasiones
C#m
Tachando mis canciones
A
Me tenas pisoteado
|-------|
|-5-7\5-|
|-6-8\6-|
|-------|
|-------|
|-------|
B
c#m
estaba desasueado no es justo, no beb, oh oh eh oh
|------------------------------|
|-9-10-10/12-10-9--------------|
|-----------------10-8-7-------|

|------------------------9-8-7-|
|------------------------------|
|------------------------------|
Pre coro: B - A# - A
A
B
Pero este mundo ya gir
|-11/12-11-|
|-12/14-12-|
|----------|
|----------|
|----------|
|----------|
C#m
Y ahora te toc perder
|------------|
|------------|
|-------4-6--|
|-4/6-6------|
|------------|
B
|------------| oh oh eh oh
Coro
- se toca la 1 parte de la Intro X 4 y se termina en E E C#m
A B
Beb, te llor todo un ro (beb, beb)
E C#m
A B
Beb, te llor a reventar (beb, beb)
E
C#m
A
B
Oh, no no nooo, no tienes corazn, oh
E
No te vuelvo a amar
C#m
A
Te llor todo un ro
B
E
Ahora llrame un mar
|---------------------|
|---------------7-9---|
|-------6-8-8-9-----9-|
|-6-7-9---------------|
|---------------------|
|---------------------|
'...ya es muy tarde'
|--9-11-|

|-10-12-|
|-------|
|-------|
|-------|
|-------|
'...una chula sirena'
|--9-11-12-11--9-7-|
|-10-12-14-12-10-9-|
|------------------|
|------------------|
|------------------|
|------------------|
'...no hay rencores'
|-11--9/11--x----------|
|-12-10/12--x----------|
|-----------x--------6-|
|-----------x--6-7-8---|
|-----------x----------|
|-----------x----------|
'...no, beb'
Riff a pre Coro
|-10-11-11/12-12-------------|
|-10-12-12/14-14----12-11-10-|
|----------------------------|
|----------------------------|
|----------------------------|
|----------------------------|
Pre coro:
'...este mundo ya gir, y ahora te toc perder'
|-11/12-11----7/9-9-9\7-7-7-7-9-4-|
|-12/14-12----7/9-9-9\7-7-7-7-9-5-|
|---------------------------------|
|---------------------------------|
|---------------------------------|
|---------------------------------|
Coro
Solo
|--------------11/12-12-12\11-11-11-11\-9--9--9--9\7-7--7-7-7-12-11-|
|--------------12/14-14-14\12-12-12-12\10-10-10-10\9-9--9-9-9-14-12-|
|-------------------------------------------------------------------|
|-------6-7-9\------------------------------------------------------|
|-6-7-9-------------------------------------------------------------|
|-------------------------------------------------------------------|
|---------------7-------------------------------------9-12-11-|
|-----------------10-9--5-5/7-9-9-9-9-9-9/10-10----10---------|

|---------6-8-9----------------------------------9------------|
|---6-7-9-----------------------------------------------------|
|-9-----------------------------------------------------------|
|-------------------------------------------------------------|
-

la parte final va con el la 1 parte del Intro, hasta el Fade Out.

-----4-----7------4------------4-----7-7---4---B---5---5------5-----5--------5---5------------7G-4-------4------4----------4-------4-----4-----D-----------------------------------------------A-----------------------------------------------E-----------------------------------------------E-----4-----7------4------------4-----7-7---4---B---5---5------5-----5--------5---5------------7G-4-------4------4----------4-------4-----4-----D-----------------------------------------------A-----------------------------------------------E-----------------------------------------------E-----4-----7------4----------4-----4/7-4--------B---5---5------5-----5------5---5---5/9-5---5-7-5G-4-------4------4--------4-------4-------4---6-4D------------------------------------------------A------------------------------------------------E------------------------------------------------VERSO:
E
B
Yo aqui llorandote un rio
C#m
mandandome al olvido
B
que cosa mas injusta amor
E
B
Fuiste matando mis pasiones
C#m
tachando mis canciones
A
me tenias pisoteado
B
estaba desahuciado
C#m
B
No es justo, no bebe Oh oh e oh
PRE CORO:
B A# A
B
Pero este mundo ya giro
C#m
B
y ahora te toco perder Oh oh e oh
CORO: (Riff del Intro de fondo)
E C#m
A
B
Bebe te llore todo un rio (bebe bebe)
E C#m
A
B

Bebe te llore a reventar (bebe bebe)


E
C#m
A B
Oh no no nooo, no tienes corazon (noo)
E
No te vuelvo a amar
C#m
A
Te llore todo un rio
B
E
ahora llorame un mar
Riff:
E-----------------------------------B--------------------------12--10--9G----------------8--9--11-----------D---------9--11---------------------A-11--12----------------------------E-----------------------------------VERSO:
Ya no me busques ya es muy tarde
ya tengo otro amor
una chula sirena que nada en mi piel
Yo te perdono no hay rencores
solo los dolores
Mi alma esta araada
llore en suelo mojado
No es justo no bebe (oh oh e oh)
PRE CORO
CORO
SOLO:
E--------------------B--------------------G----------------8--9D---------9--11------A-11--12-------------E--------------------E-/12--12--12--11--11--11------9--9--9--7--7--7--7/12--11B-/14--14--14--12--12--12-----10-10-10--9--9--9--9/14--12G--------------------------------------------------------D--------------------------------------------------------A--------------------------------------------------------E--------------------------------------------------------E--------------------------------------B----------------------12--10--9-------G----------------8--9-------------9--11D---------9--11------------------------A-11--12-------------------------------E--------------------------------------E------------------------------9--12--11B-9-9-9-9-9--10-10-10--10--12------------

G---------------------------------------D---------------------------------------A---------------------------------------E---------------------------------------(Riff del Intro de fondo)


E
C#m
A
B
Verdad que un rio te llore, verdad que no te vuelvo a amar
E
C#m
A B
oh no no no, no te vuelvo a amar (uh uh uh)
E
C#m
A
B
Verdad que un rio te llore, verdad que no te vuelvo a amar
E
C#m
A B
oh no no noo no, pierdete en tu mar (uh uh uh)
E
C#m
A
B
Verdad que un rio te llore, verdad que no te vuelvo a amar
E
C#m A B
llorame, llorame, llorame (uh uh uh)
G
C
D
Como yo te deseo, na nana nana na
G
C
D
como yo te adoro, na nana nana na
G
C
D
Como yo te deseo, na nana nana na
G
C
D
como yo te adoro, na nana nana na
Am
F
C
Mariposas bailan en mi pecho
G
Am F C G
el calor no se dispersa amor
Am
F
C
oye nena te quiero besar
G
Am F C G
de los pies a la cabeza amor
Am F
No aprietes tanto
C
G
soy un lobo hambriento
Am
F CG
y la luna suelta el llanto
Am
F
en mis pupilas
C
G
entras desnuda
Am
F C
siento que me ahogo en tu sudor

te deseo mas!
Am
F C G
Te deseo, aha aha uh ha
Am
F C G
yo te quiero, ohh yeah
Am
F C G
Te deseo, aha aha uh ha
Am
FCG
yo te quiero.
(Am - F - C - G)
Un tambor sono muy africano
ese ponpin ponpin de tu corazon.
Un tambor sono muy mexicano
ese ponpin ponpin de tu corazon.
Am F
No aprietes tanto
C
G
soy un lobo hambriento
Am
F
y el calor no se dispersa
C
G
no se dispersa amor.
Am
F
Te abrazo fuerte
C
G
no abras los ojos
Am
ahi entonces bailaras
F
C
en mi pecho amor.
G
te deseo mas!
Am
F C G
Te deseo, aha aha uh ha
Am
F C G
yo te quiero, ohh yeah
Am
F C G
Te deseo, aha aha uh ha
Am
FCG
yo te quiero.
Como yo te deseo...
Intro de las 4 primeras lineas: A5 D - E

A5
D
E
Como yo te deseo, na nana nana na
A5
D
E
como yo te adoro, na nana nana na
A5
D
E
Como yo te deseo, na nana nana na
A5
D
E
como yo te adoro, na nana nana na
Bm
G
D
Mariposas bailan en mi pecho
A
Bm G D A
el calor no se dispersa amor
Bm
G
D
oye nena te quiero besar
A
Bm G D A
de los pies a la cabeza amor
Bm G
No aprietes tanto
D
A
soy un lobo hambriento
Bm
G DA
y la luna suelta el llanto
Bm
G
en mis pupilas
D A
entras desnuda
Bm
G D
siento que me ahogo en tu sudor
te deseo mas!
Bm
G D A
Te deseo, aha aha uh ha
Bm
G D A
yo te quiero, ohh yeah
Bm
G D A
Te deseo, aha aha uh ha
Bm
GDA
yo te quiero.
(Bm - G - D - A)
Un tambor sono muy africano
ese ponpin ponpin de tu corazon.
Un tambor sono muy mexicano
ese ponpin ponpin de tu corazon.

No aprietes tanto
soy un lobo hambriento
y el calor no se dispersa
no se dispersa amor.

Te abrazo fuerte
no abras los ojos
ahi entonces bailaras
en mi pecho amor.
te deseo mas!

Te deseo, aha aha uh ha


yo te quiero, ohh yeah
Te deseo, aha aha uh ha
yo te quiero.
A5
etc
Como yo te deseo... (DE VUELTA A LO MISMO DEL PRINCIPIO)
INTRO:
e) ---0----0-----0---0----------------------0
b) ---------------------------------------0-g) --2---2-----2---2-------2---2--4-----1---d) --------------------------0--------------a) -----------------------------------x-----e) -----------------------------------------Eso se repite dos veces y despus cuando dice:
'mariposas bailan en mi pecho....' en ese mometo va
esto
VERSOS:
e) ------------------0-----------------------0---b) ------3-------------0-------------3---------0-g) ---------4------------0---------2---2---------2
d) ---4-------------------------0----------------a) 2-------------------------------------0------e) --------------3-------------------------------Esto se rpite varias veces

CORO:
El coro va as, en las notas se utiliza el palm mute,
el rasgueo va con fuerza
e) -------------------------------x2-2-x-3-3x-x-0-0
b) --------3------------3-3-------x3-3-x-33-x-x-2-2
g) --2-2-4---4----2-2-4-----4-----x2-2-x-4-4x-x-2-2
d) -------------------------------------------------a) -------------------------------------------------e) -------------------------------------------------Eso se repite 4 veces, despues van las notas del verso,
despues las del coro, de ahi las del verso, seguidas
por las notas del intro, despues, las notas del ultimo
coro se transportan 2 trastes, pero de cualquier forma
ahi les va:
e)-----------------------------x-4-4-x-5-5-x-x-2-2
b)--------5----------5-5-------x-5-5-x-5-5-x-x-4-4
g)--4-4-6--6---4-4-6-----6-----x-4-4-x-6-6-x-x-4-4
d)-----------------------------------------------a)-----------------------------------------------e)-----------------------------------------------Finalmente estas son las ultimas notas de la cancion:
e)-7-7-7-7-7-7----------7-7-7-7-7-7-------b)-9-9-9-9-9-9-9-9-7-9--9-9-9-9-9-9-9-9-7-5
g)-------------9-9-8-9--------------9-9-8-6
d)----------------------------------------a)----------------------------------------e)----------------------------------------e)-7-7-7-7-7-7----------7-7-7-7-9-9------b)-9-9-9-9-9-9-9-9-7-9--9-9-9-9-9-9-7-7-9g)-------------9-9-8-9--------------8-8-9d)---------------------------------------a)---------------------------------------e)---------------------------------------Eso es todo, creo, y esto se repite varias veces,
con pequeas variantes en la ultima parte, aunque
ya cada quien le puede poner su estilo.
Como yo te deseo.
Na, na, na, na, na.
Como yo te adoro.
Na, na, na, na, na.
1. Como yo te deseo.
2. Como yo te adoro.
e-------0-----------0--|-------0-----------0--|
b----------0-----0-----|----------0-----0-----|
g-------------2--------|-------------2--------|
D----2-----------------|----2-----------------|
A0--------------------|0--------------------|

E----------------------|----------------------|
1. Na, na, na, na, na.
2. Na, na, na, na, na.
e-----------|-----------0--|
b--------0--|--------0-----|
g-----2-----|-----1--------|
D-0--------|--2-----------|
A-----------|--------------|
E-----------|--------------|
::Tocen esto repetidamente durante estos versos::
e--------------|--------0--------|--------------|--------0--------|
b--------3-----|-----------0-----|--------3-----|-----------0-----|
g.----------4--|--------------0--|-----2-----2--|-----2--------2-.|
D.----4--------|-----0-----------|--0-----------|----------------.|
A-2-----------|-----------------|--------------|--0--------------|
E--------------|--3--------------|--------------|-----------------|
Mariposas bailan en pecho, el calor no se dispersa amor.
Oye nena te quiero besar de los a la cabeza amor.
Me prendes tanto, soy un lobo hambriento y la luna suelta el llanto.
En mis pupilas entras desnuda siento que me ahogo en tu sudor, te deseo mas.
::Coro::
e--------------------|--------------------|-------------|---------------|
b--------------------|--------------------|--7-7---8-8--|--x-x--5---5--|
g-----------7-7-----|-----------7-7-----|--7-7---7-7--|--x-x---6---6--|
D-7-7-9--------9--|--7-7-9--------9--|--7-7---9-9--|--x-x---7---7--|
A--------------------|--------------------|-------------|---------------|
E--------------------|--------------------|-------------|---------------|
PM---------------| PM---------------| PM--------| PM----------|
Te deseo aha, aha, u ah.
Yo te quiero.
Te deseo aha, aha, u ah.
Yo te quiero.
::Interlude::
e--------------|--------0--------|--------------|--------0--------|
b--------3-----|-----------0-----|--------3-----|-----------0-----|
g-----------4--|--------------0--|-----2-----2--|-----2--------2--|
D-----4--------|-----0-----------|--0-----------|-----------------|
A-2-----------|-----------------|--------------|--0--------------|
E--------------|--3--------------|--------------|-----------------|
e--------------|--------0--------|--------------|--------0--------|
b--------3-----|-----------0-----|--------3-----|-----------0-----|
g-----------4--|--------------0--|-----2-----2--|-----2--------2--|
D-----4--------|-----0-----------|--0-----------|-----------------|
A-2-----------|-----------------|--------------|--0--------------|
E--------------|--3--------------|--------------|-----------------|

::SIN TOCAR(solamente percussion)::


Un tambor sono muy africano
Es el pompin, pompin de tu corazon.
Un tambor sono muy mexicano
Es el pompin, pompin de mi corazon.
::Toca esto con el verso::
e--------------|--------0--------|--------------|--------0--------|
b--------3-----|-----------0-----|--------3-----|-----------0-----|
g.----------4--|--------------0--|-----2-----2--|-----2--------2-.|
D.----4--------|-----0-----------|--0-----------|----------------.|
A-2-----------|-----------------|--------------|--0--------------|
E--------------|--3--------------|--------------|-----------------|
M eprendes tanto, soy un lobo hambriento,
y el calor no se dispersa, no se dispersa amor.
Te abrazo fuerte, no abras los ojos.
Mariposas bailan en tu pecho amor, te deseo mas.
::Coro::
::Interlude::-->2 veces
1. Como yo te deseo.
2. Como yo te adoro.
e-------0-----------0--|-------0-----------0--|
b----------0-----0-----|----------0-----0-----|
g-------------2--------|-------------2--------|
D----2-----------------|----2-----------------|
A0--------------------|0--------------------|
E----------------------|----------------------|
1. Na, na, na, na, na.
2. Na, na, na, na, na.
e-----------|-----------0--|
b--------0--|--------0-----|
g-----2-----|-----1--------|
D-0--------|--2-----------|
A-----------|--------------|
E-----------|--------------|
::Coro(Repeat and Fade):
La introduccin y el espacio entre los versos van as:
G
Bm
C
D7
e---3-------5----2-----2-------0-----0--------2-----2-----|
B------3-----------3-----3-------1-----1--------1-----1---|
G--------4-----------4-----4-------0-----0--------2-----2-|
D---------------------------------------------0-----------|
A-----------5----2-------------3--------------------------|
E---3-----------------------------------------------------|

En las partes en que se canta va similar, solo cambia un poco el G:


G

Bm

D7
e-3------3-------2------2------0-----0--------2------2----------------------B----3-----3--------3-----3------1-----1--------1------1--------------------G------4-----4--------4-----4------0-----0--------2------2------------------D---------------------------------------------0-----------------------------A----------------2-------------3--------------------------------------------E-3-------------------------------------------------------------------------Despues en los coros se rasguean estos acordes
Em C D G y en de verso por medio Em C D
G

Bm C

Como quisiera

D7

Bm C D7

poder vivir sin aire

G
Bm C D7
G
Bm C D7
Como quisiera
poder vivir sin agua
G
Bm C
Me encantaria

D7
G
Bm C D7
quererte un poco menos

G
C D7
G
Bm C D7
Como quisiera
poder vivir sin ti
Em
C D
Pero no puedo,

G
siento que muero

Em
C
D
Me estoy ahogando sin tu amor
Em
C
D G
Como quisiera poder vivir sin aire
Em
C
D
Como quisiera calmar mi afliccion
Em
C
D G
Como quisiera poder vivir sin agua
Em
C
D
Me encantaria robar tu corazon
e-3------2---------------------B---3--------------------------G-----2------------------------D------------------------------A------------------------------E------------------------------Despues se vuelve a repetir el mismo patron

Como pudiera un pez nadar sin agua


Como pudiera un ave volar sin alas
Como pudiera la flor crecer sin tierra
Como quisera poder vivir sin ti
Pero no puedo, siento que muero
Me estoy ahogando sin tu amor
Como quisiera poder vivir sin aire
Como quisera calmar mi afliccion
Como quisiera poder vivir sin agua
Me encantaria robar tu corazon
Como quisera lanzarte al olvido
Como quiera guardarte en un cajon
Como quisiera borrarte de un soplido
Me encantaria matar esta cancion
INTRO:
G G9 Bm Bm7 C D7 ( se repite )
G
Bm
C
D7
G Bm C D7
Como quisiera
poder vivir sin aire
G
Bm
C
D7
G Bm C D7
Como quisiera
poder vivir sin agua
G
Bm
C
D7
G Bm C D7
Me encantaria
quererte un poco menos
G
Bm
C
D7
G Bm C D7
Como quisiera
poder vivir sin ti
Em
C Em
Pero no puedo,

G
siento que muero

Em
C
D
Me estoy ahogando sin tu amor
Em
C
G D
Como quisiera poder vivir sin aire
Em
C
D
Como quisiera calmar mi afliccion
Em
C
G D
Como quisiera poder vivir sin agua
Em
C
D
Me encantaria robar tu corazon
INTRO
Como pudiera un pez nadar sin agua
Como pudiera un ave volar sin alas

Como pudiera la flor crecer sin tierra


Como quisera poder vivir sin ti
Pero no puedo, siento que muero
Me estoy ahogando sin tu amor
Como quisiera poder vivir sin aire
Como quisera calmar mi afliccion
Como quisiera poder vivir sin agua
Me encantaria robar tu corazon
Como quisera lanzarte al olvido
Como quiera guardarte en un cajon
Como quisiera borrarte de un soplido
Me encantaria matar esta cancion
e----3----2----0------------------B---------------------3---------G------------------------------D------------------------------A------------------------------E------------------------------FINAL G Bm C D7 G
Intro:*(2)
G
Bm7
C
D
E-3--------------5----2-----4-----------0------3-------2-------3----------B---3-------------------3-----3-----------1------1--------3/5-----5-------G-----0-------------------2-----2-----------0------0----------------------D------------------------------------------------------0------------------A-----------0-2--2----2-------------2---3---------------------------------E-3-------3---------------------------------------------------------------G
Bm7
C
D
D7
E-3--------------5----2-----4-----------0------3------0-0-0-0-------------B---3-------------------3-----3-----------1------1----3-3-3-3-3-3-3--1-1--0
G-----0-------------------2-----2-----------0------0----------2-2-2--2-2--0
D-------------------------------------------------------------------------A-----------0-2--2----2-------------2---3---------------------------------E-3-------3---------------------------------------------------------------Cuando se toca el Intro por segunda ocasion se toca D=x00232
...Poder vivir sin aire...
E------------------------------1----3------1--B-3/5--5-5--3-1-3--2-1-0--2/3----2----3-------G---------------------------------------0-----D---------------------------------------------A---------------------------------------------E---------------------------------------------...Poder vivir sin agua....
E-----1--0-0-0-0--1-3-1-0---------------------B-2/3----3-3-3-3--3-3-3-3--4-4-4--2-2--2/1----G--------------------------4-4-4--3-3--3/2-----

D---------------------------------------------A---------------------------------------------E---------------------------------------------*Durante la cancion hay dos guitarras una Puntea y la otra toca el Ritmo...
Los acordes del Coro son:Em , C , D , y G cada dos versos
INTRO:
G

Bm

E-I-------5--I-2---5-3---I---3-3----I-2---0-3-0-------I
B-I-3-0-1-3--I-3-3-3-3-0-I-3-5-5----I-3-3-------0-----I
G-I-4--------I---4-------I-0--------I---2-------------I
D-I----------I-----------I----------I-----------------I
A-I----------I-----------I----------I-----------------I
E-I----------I-----------I----------I-----------------I
G
Bm
C
D
E-I-------5--I-2---5-3---I---3-3-3--I-3-O-0-0-0-------I
G-I-3-0-1-3--I-3-3-3-3-0-I-3-3-3-3--I-3-3-3-3---3-3---I
D-I-4--------I---4-------I-0--------I-----------2-2-2-I
A-I----------I--------- -I----------I---------------0-I
E-I----------I--------- -I----------I-----------------I
G
Bm
C
D
E-I----------I-----------I----------I-----------------I
B-I-0--------I-----------I----------I-----------------I
G-I-2--------I-----------I----------I-----------------I
D-I----------I-----------I----------I-----------------I
A-I----------I-----------I----------I-----------------I
E-I----------I-----------I----------I-----------------I
Para lo siguientes punteos:
Si no aparece nada antes de la frase van despues de esta
Si aparece un asterisco suena sobre la voz de la frase
VERSO 1:
Como quisiera
E-I---0---0---------------I
B-I-3---3-----1---1-2-2-0-I
G-I-----------------------I
D-I-----------------------I
A-I-----------------------I
E-I-----------------------I
Poder vivir sin aire
E-I-3/5-5-5---3-2-2-3-2--0-2---0-2------I

B-I--------------------------3-----3-3--I
G-I-------------------------------------I
D-I-------------------------------------I
A-I-------------------------------------I
E-I-------------------------------------I
Como quisiera

poder vivir sin agua

E-I---0-3-0-----I---------0-3-5-3---0-0-0-0-----------I
B-I-2-------0-2-I----8--3---------3---------3-3-3-1-0-I
G-I-------------I-4/7---------------------------------I
D-I-------------I-------------------------------------I
A-I-------------I-------------------------------------I
E-I-------------I-------------------------------------I

Quererte un poco menos


E-I-3/5-5-5---3-2-2-3-2--0-2---0-2-----I
B-I--------------------------3-----3-3-I
G-I------------------------------------I
D-I------------------------------------I
A-I------------------------------------I
E-I------------------------------------I
poder vivir sin ti
E-I---3/5-5-5---3-2-2-3-2--0-2---0-2----I
B-I----8--3---------3---------3-3-3-1-0-I
G-I-4/7---------------------------------I
D-I-------------------------------------I
A-I-------------------------------------I
E-I-------------------------------------I
PUENTE
Pero no puedo Siento que muero
E-I-------------I---0-5-5-3-----I
B-I-------------I-3---------0-3-I
G-I-----0-------I---------------I
D-I-0-2---2---0-I---------------I
A-I---------2---I---------------I
E-I-------------I---------------I
Me estoy ahogando sin tu amor
E-I-2-3-5-3-2-0-3-2-0---2-0-------I
B-I-------------------3-----3-0---I
G-I-----------------------------0-I
D-I-------------------------------I
A-I-------------------------------I

E-I-------------------------------I
REPETIR INTRO.
VERSO 2:
...nadar sin agua

Como pudiera

E-I-------0-2-3-0--0-0-0-0---------I-------------I
B-I-0-1-3------------------3-3-1-0-I-----5-------I
G-I--------------------------------I-4/7---------I
D-I--------------------------------I-------------I
A-I--------------------------------I-------------I
E-I--------------------------------I-------------I
*Un ave volar sin alas
E-I-------------------I
B-I-5-5-5-5-3-3-3-1-0-I
G-I-------------------I
D-I-------------------I
A-I-------------------I
E-I-------------------I
E-I---7-----5-----0-----2-----0-0-------I
B-I-------------------------------3-1-0-I
G-I-7---7-5---5-4---4-2---2-0-----------I
D-I-------------------------------------I
A-I-------------------------------------I
E-I-------------------------------------I
Como pudiera La flor crecer sin tierra
E-I-------0-----I-------0-2-3-0-0-0-0-----2-3-I
B-I-----0-1-----I-0-1-3---------------3-3-----I
G-I-0-2---------I-----------------------------I
D-I-------------I-----------------------------I
A-I-------------I-----------------------------I
E-I-------------I-----------------------------I
Como quisiera
---------0----I
-0-1-3-3-3----I
--------------I
--------------I
--------------I
--------------I
Poder vivir sin ti
E-I---7-----5-----0-----2-----0-0-------I
B-I-------------------------------3-1-0-I
G-I-7---7-5---5-4---4-2---2-0-----------I
D-I-------------------------------------I

A-I-------------------------------------I
E-I-------------------------------------I
FINAL
E-I-3-2-0-----2-3-0---0-2-15-I
B-I-------3-3-------0--------I
G-I--------------------------I
D-I--------------------------I
A-I--------------------------I
E-I--------------------------I
VIVIR SIN AIRE
Intro
e|--3-----------5---2------5------0-----3------2-----3----B|--3-------3------------3---3----1---1---1----3-3/5---5-3G|--0-----0---0----------------2--0---------0--2----------D|------0--------------0----------2-2----------0----------A|----2---------5---2-------------3-----------------------E|--3-----------------------------------------------------e|--------------5---2------5------0-----3-332200----------B|----------3------------3---3----1---1---33321133-0------G|--------0---0----------------2--0-------------44-0------D|------0--------------0----------2-2---------------------A|----2---------5---2-------------3-----------------------E|--3-----------------------------------------------------Verso
Riff 1
e|--------3-------------------------------3-0-----------2h3-2-2h3------B|------3---3-------------3-5-3---------1-----1-------3----------------G|----0-------0---------4-------4-----0---------0---2------------------D|--------------0-----4---------------------------0--------------------A|------------------2-------------2-3----------------------------------E|--3-------------3----------------------------------------------------Riff 2
e|--3/5-55\3-3-2--2-2h3-2-0-----2--3-2-3----B|--3/5-55\3-3-3-3--3---3-1-------3-3-3-----G|---------------------------2/4------------D|------------------------------------------A|------------------------------------------E|------------------------------------------Riff 3
e|-----3------33/5-5\3----------------------B|--------3-5-33/5-5\3-33/5-5-55\3-333\1p0-0G|--2/4---4-5----------44/5-5-55\4-444\2p0-0-

D|------------------------------------------A|------------------------------------------E|------------------------------------------Estructura
Riff 1
Riff 2
Riff 1
Riff 3
Riff 1
Riff 2
Riff 1
Riff 3
Pre-Coro
e|--------0------------------0--------------0-------------0----------B|------1----1---1-----3-------0--------------3---------1---3--1--3--G|----0--------0-----0---2/4-----2--------0-----0-----0--------------D|-----------------0--------------2-----4----------------------------A|--3---------------------------------2-----------2-3----------------E|----------------------------------0--------------------------------e|-------3--------------3----------2--2-3-5-3-2h3p2---2---------------B|------3----3---3-----3----3---3---3----------------5---5-3-1--------G|----0--------0-----0--------0-----2--------------------------4-2-0--D|----------------------------------0--------------------------------4A|--------------------------------------------------------------------E|--3--------------3---------------------------------------------------

CORO
e|--------3---------------3--0-------------3--------------------------B|------3---3-----------1------1---------3---3---3---3-------3--------G|----0-------0-------0----------0-----0-------0-------0-------0------D|--------------2----------------------------------------0-------0----A|----------------2-3-------------------------------------------------E|--0------------------------------2-3-------------3-------2-------0--Em
C
D
E----------0---------------0---------------2-----3-----3---2---------B------------3-----------1---1---------3-----3-----3-----3---3---3---G--------0-----0-------0-------0-----2---2-----2-----2---------2-----D------4-------------2-----------2-0---------------------------------A----2-----------2-3-------------------------------------------------E--0-----------------------------------------------------------------Intro
Riff 4

e|----------------------------------------B|--0-1-3-5-7-8-5--5-5-3-3-1-0------------G|----------------------------------------D|--0-2-4-5-7-9-5--5-5-4-4-2-0------------A|----------------------------------------E|----------------------------------------Riff 5
e|---7---5---3-2-3--0------2--3-2-3-------B|---------------------------3-3-3--------G|--/7--/5--/4-2-4--0--2/4----------------D|----------------------------------------A|----------------------------------------E|----------------------------------------Riff 6
e|----------------------------------------B|--0-1-3-5-7-8-5--5-5-3-3-7-8------------G|----------------------------------------D|--0-2-4-5-7-9-5--5-5-4-4-7-9------------A|----------------------------------------E|----------------------------------------Riff 7
e|---7---5---3-5-7-5-3-2-00-----2--3-2-3--B|--------------------------------3-3-3---G|--/7--/5--/4-5-7-5-4-2-00--2/4----------A|----------------------------------------E|----------------------------------------Verso 2
Riff 1
Riff 3
Riff 1
Riff 5
Riff 1
Riff 6
Riff 1
Riff 7
Pre-Coro
e|--------3---------------3--0-------------3--------------------------B|------3---3-----------1------1---------3---3---3---3-------3--------G|----0-------0-------0----------0-----0-------0-------0-------0------D|--------------2----------------------------------------0-------0----A|----------------2-3-------------------------------------------------E|--0------------------------------2-3-------------3----(3)2----(2)0--e|----------0---------------0---------------2-----3-----3---2---------B|------------3-----------1---1---------3-----3-----3-----3---3---3----

G|--------0-----0-------0-------0-----2---2-----2-----2---------2-----D|------4-------------2-----------2-0---------------------------------A|----2-----------2-3-------------------------------------------------E|--0-----------------------------------------------------------------|________________________________|
|
El coro se toca en dos tiempos...en el segundo tiempo se toca esto...
e|----------2------------------------B|------3-----3----------------------G|----2---2--------------------------D|--0--------------------------------A|---------------------0--2-0--------E|---------------2--3---------3-2-0-0En el coro, en el segundo tiempo...no deves tocar esto...
|
|
e|--------------------e|---7----5----3--------B|---3-------3--------B|----------------------G|-----0-------0------- sino esto
G|--/7---/5---/4--------D|-------0-------0----D|----------------------A|--------------------A|----------------------E|-3----(3)2----(2)0--E|-----------------------

e|--3-2-0------2-3-0--0---0--------------10----9----8----7----------B|--3-3-1-3--3-3-3-1--1-3-1----------0------12---11---10---8--------G|--------4--4-2---0----4-0--------0-------------------------7------D|-------------0----------2------0-----------------------------10-9~A|------------------------3----2------------------------------------E|---------------------------3--------------------------------------Introduccin original de la cancin (guitarra)


(Sergio)
SOLM Sim7
DOM
REM
E-3------5-2----2---0---0----0-2----33/5/0-----|
B--0--------3----3---1---1------3---33/5/0-----|
G---0--------2----2---0---0------2-------------|
D----------------------------------------------|
A------0-2-2----2---3---3----0-----------------|
E-3---3----------------------------------------|
Un poco rpido esta parte
E-3------5-2----2---0---3--322-0---------------------|
B--0--------3----3---1-----333-1-310-----------------|
G---0--------2----2---0----------420-----------------|
D----------------------------------------------------|
A------0-2-2----2---3---3----------------------------|
E-3---3----------------------------------------------|

Riff (1)

E-3/5-55-32-22320----2-32-3--------------------------|
B-3/5-55-33-33331-33--3--3---------------------------|
G-----------------44---------------------------------|
D----------------------------------------------------|
A----------------------------------------------------|
E----------------------------------------------------|

Riff (2)
E-----3----353---------------------------------------|
B-3/5---35-353-3555--5555-33-11----------------------|
G-------45-----4555--5555-44-22----------------------|
D----------------------------------------------------|
A----------------------------------------------------|
E----------------------------------------------------|
Riff(3)
ReM
DoM
E----------------------------------------------------|
B-7-8--10-8-75-8-7-5--3-5-3-1-0---1-----------------|
G----------------------------------------------------|
D----------------------------------------------------|
A----------------------------------------------------|
E----------------------------------------------------|
Riff (4)
E------------0---------------------------------------|
B-01-35-5-78-1---555--333--1-------------------------|
G-00-45-5-77-----555--444--2-------------------------|
D----------------------------------------------------|
A----------------------------------------------------|
E----------------------------------------------------|
Riff (5)
E-----3-5-3------------------------------------------|
B3-5-------3-5-5-5-----5-5-5-3-3-3-1-0--------------|
G----------------------------------------------------|
D----------------------------------------------------|
A----------------------------------------------------|
E----------------------------------------------------|

SolM
Sim7 DoM ReM
Sol Sim7 Do ReM
Como quisiera poder vivir sin aire Riff (1)
SolM

Sim7 DoM

ReM

Sol Sim7 DoM ReM

Como quisiera poder vivir sin agua

Riff(2)

SolM
Sim7 DoM
ReM
SolM Sim7 DoM Rem
Me encantara quererte un poco menos Riff (1)
SolM
Sim7 DoM ReM
SolM Sim7 DoM ReM
Como quisiera poder vivir sin ti Riff (2)
DoM
ReM
Pero no puedo,

Em
DoM
siento que muero

SolM
ReM
Me estoy ahogando sin tu amor Riff (3)
Em
DoM
SolM
Como quisiera poder vivir sin aire
Em
DoM
ReM
Como quisiera calmar mi afliccin
Em
DoM
SolM
Como quisiera poder vivir sin agua
Em
DoM
ReM
Me encantara robar tu corazn
Se repite la misma introduccin sin cambio alguno
( esto se toca con los mismo acordes de las estrofas anteriores )
Como pudiera un pez nadar sin agua Riff (4)
Como quisiera poder vivir sin ti Riff (5)
Pero no puedo, siento que muero
Me estoy ahogando sin tu amor ...

Riff (3)

Como quisiera lanzarte al olvido


Como quisiera guardarte en un cajn
Como quisiera borrarte de un soplido
Me encantara matar esta cancin

Esta es la figura final de la cancin con todo


y el requinto ( se escucha mortal ).
E-3-2-0-------2-3-0-0--2--0--------------------------|
B-3-3-1-3---3-3-3-1----3--1--------O-----------------|
G-------4---4-----0----2--0-------0------------------|
D-------------------------0------0-------------------|
A-------------------------------2--------------------|
E------------------------------3---------------------|

Requinto final ( este arreglo va muy rpido


Tienes que tener un poco de agilidad en tus dedos )
E-9-10-12-9-10----9------------------------| 1 CUERDA
B--------------12---10-12-9-10-5-----------| 2 CUERDA
G---------------------------------7-6------| 3 CUERDA
SI TE GUSTO LA TABLATURA, ESCRIBEME Y TE PUEDO
MANDAR OTRAS CANCIONES,PRACTICA MUCHO LA LIRA...
Intro: sol sim do re/fa (sostenido) x 4
SOL
SIm
Cmo quisiera
DO RE/FA
SOL SIm DO RE/FA
poder vivir sin aire
SOL
SIm
Cmo quisiera
DO RE/FA
SOL SIm DO RE/FA
poder vivir sin agua
Me encantara
quererte un poco menos
cmo quisiera
poder vivir sin t
DO
RE
Pero no puedo
MIm7
DO
siento que muero
SOL
RE
me estoy ahogando sin tu amor
MIm7
DO
SOL RE/FA
Cmo quisiera poder vivir sin aire
MIm7
DO
RE
cmo quisiera calmar mi afliccin
MIm7
DO
SOL RE/FA
cmo quisiera poder vivir sin agua
MIm7
DO
RE
me encantara robar tu corazn
Base de intro
Cmo pudiera
un pez nadar sin agua
cmo pudiera
un ave volar sin alas
Cmo pudiera
la flor crecer sin tierra
cmo quisiera
poder vivir sin t

Pero no puedo...
Cmo quisiera poder vivir sin aire...
Cmo quisiera lanzarte al olvido
cmo quisiera guardarte en un cajn
cmo quisiera borrarte de un soplido
me encantara matar esta cancin
INTRO
Sol

SIm

Do

Re

E --3-----3---5--2-----2------0----0------2-2s4-0---B --3---3--------3---3---3----1---1--1----3-3s5---5-G --0-0-----0----4-4-------4--0-0------0--2-2s4-----4


D ----------------------------------------0---------A ---------------2------------3---------------------E --3-----------------------------------------------Luego lo anterior se repite nuevamente pero toca esto al final:
E --3-2-2-0-0------B --3-3-3-1-1--3-3s0
G -------------4-4s1
D -----------------A -----------------E -----------------Sol
SIm Do Re
(Sol SIm Do Re)
Como quisiera
poder vivir sin aire
Sol
SIm Do Re
(Sol SIm Do Re)
Como quisiera
poder vivir sin agua
Sol
SIm Do Re
(Sol SIm Do Re)
Me encantaria
quererte un poco menos
Sol
SIm Do Re
(Sol SIm Do Re)
Como quisiera
poder vivir sin ti
Do
Re Sol
Do
Pero no puedo siento que muero
Sol
Re
Me estoy ahogando sin tu amor
CORO:
Sol

Do

Sol Re

Como quisiera poder vivir sin aire


Sol
Do
Re
Como quisiera calmar mi afliccin
Sol
Do
Sol Re
Como quisiera poder vivir sin agua
Sol
Do
Re
Me encantaria robar tu corazn
(Se repite el Intro)
Sol
SIm Do
Como pudiera
Como pudiera
Como pudiera
Como quisera

Re
(Sol SIm Do Re)
un pez nadar sin agua
un ave volar sin alas
la flor crecer sin tierra
poder vivir sin ti

Do
Re Sol
Do
Pero no puedo siento que muero
Sol
Re
Me estoy ahogando sin tu amor
CORO 2:
Sol
Do
Sol Re
Como quisiera poder vivir sin aire
Sol
Do
Re
Como quisiera calmar mi afliccin
Sol
Do
Sol Re
Como quisiera poder vivir sin agua
Sol
Do
Re
Me encantaria robar tu corazn
(El mismo orden de los acordes para los siguientes versos)
Como quisera lanzarte al olvido
Como quiera guardarte en un cajn
Como quisiera borrarte de un soplido
Me encantaria matar esta cancin...(final)
FINAL:
(Do)
E --3-2-0--x-----2-3--0-------------B --3-3-1--3--3--3----1--4s5--3--1--0
G ---------4-----2----0-------4--2--0
D ---------3-----2----2-------0--0--0

A ---------3-----2----3-------0--0--0
E ----------------------------------C
A.
C
C
F

C
B.
C
C
F

F G F
C F G
Quin te besar de pies a cabeza?
F
G
F
C F G
Quin te har el caf por la maana?
F
G F C
Dime quin te baar de besos?
G C
F G
F
C F G
Slo yo, quin te har tripear? Guay, guay.
F
G
Hoy te quiero ms que siempre
F
G
Hoy te adoro ms que nunca
F
G F
C
Hoy te voy a besar de los pies a la cabeza
C F G
Guay, guay.

A.

Quin te har el amor con luna y playa?


Quin ser tu sol que no te falla, que no te falla?
Dime quin te quitar las espinas de tu corazn?
Slo yo, t mi religin, Guay, guay.

B.

Hoy te quiero ...

C.
G

C
F
Quin te ir besando hasta los pies
F C
F G
Quin subiendo hasta la cabeza (se repite)

Esus2 A B A Esus2 A B
Despus cambia un poquito el ritmo y va ms o
menos as:
VERSO 1:
Esus2 A B A
Esus2 A B A
Quin te besar de pies a cabeza?
Esus2 A
B A
Esus2 A B A
quin te har el caf por la maana?
Esus2
A
B A Esus2
dime quin te baar de besos?
A
BA
slo yo
Esus2 A
B
quin te har tripiar?
A
Esus2 A B A
guayo guayo.

El coro va con este ritmo:


E
A
B
-0-0-0-0-0-0--0-0-0-0-0-0--0-0-0-0-0-0--0-0-0-0-
-0-0-0-0-0-0--0-0-0-0-0-0--5-5-5-5-5-5--5-4-0-0-
-1-1-1-2-2-1--2-2-2-2-2-2----6-6---6--------6-4-
------------------------------------------------
------------------------------------------------
------------------------------------------------
y se repite en todo el coro hasta la parte en donde
no hay acompaamiento.
CORO:
E
A
B
Hoy te quiero ms que siempre
E
A
B
hoy te adoro ms que nunca
E
A
B
E
hoy te voa besar de los pies a la cabeza
A
B
guayo yo yo
VERSO 2:
Esus2
A
B A
Esus2 A B A
Quin te har el amor con luna y playa?
Esus2 A
B A
Esus2
ABA
quin ser tu sol que no te falla que no te falla?
Esus2
A
B A
Esus2
dime quin te quitar las espinas de tu corazn?
A
BA
slo yo
Esus2 A B
t mi religin
A
Esus2 A B A
guayo guayo.
CORO:
E
A
B
Hoy te quiero ms que siempre
E
A
B
hoy te adoro ms que nunca
E
A
B
E
hoy te voa besar de los pies a la cabeza
A
B
guayo yo yo
SOLO:
E
A
B
A
E
--------------------------7-7---------------------------------
-9-9----------------------7-7---------------------9-9---------
-9-9---------9-9----------8-8--------9-9----------9-9---------

-9-9---9-11------11-9-11--9-9--9-11------11-9-----9-9--9-9-11-
----------------------------------------------11--------------
--------------------------------------------------------------
A
B
A
--------------7-7------------------/\--------
--------------7-7-----------------/--\-------
-9-9----------8-8--------9-9----11---(11)-11-
-----11-9-11--9-9--9-11------11--------------
---------------------------------------------
---------------------------------------------
En el siguiente verso se repite el solo como el ritmo
de acompaamiento
VERSO 3:
A E
A
Te ir besando hasta los pies?
B
A E
quin subiendo hasta la cabeza?
A
B
Brr Rastaman
A
E
A
quin te ir besando hasta los pies?
B
A E
quin subiendo hasta la cabeza?
A
B
bukiti bukitib b b
A
E
A
quin te ir besando hasta los pies?
B
A E
quin subiendo hasta la cabeza?
A
B
bom bum bom budum bambeo
A
E A B A
te va va va a besar? va va
E
A
B
Hoy te quiero ms que siempre
E
A
B
hoy te adoro ms que nunca
E
A
B
E
hoy te voa besar de los pies a la cabeza
A
B
guayo yo yo
E
A
B
Hoy te quiero ms que siempre
E
A
B
hoy te adoro ms que nunca
E
A
B
E
hoy te voa besar de los pies a la cabeza
A
B
guayo yo yo
La cancin termina con el mismo ritmo del coro y

el mismo acompaamiento.
Esus2 A B E
-7--5--7--7-
-7--5--7--9-
-9--6--8--9-
-9--7--9--9-
-7--7--9--7-
-x--x--x--x-
(BRIDGE)
B F# G#m E D# E D#m
e-2--2--4---0----6--7----6----B-4--2--4---0----6--7----7----G-4--3--4---1----8--9----8----D-4--4--6---2----8--9----8----A-2--4--6---2----6--7----6----E-2--2--4---0----6--7----6----*******************************
Clavado En
Un Bar
INTRO
Oh yeah!
B E B E
Gb
e--7--7-7---7--7-7----9--9
B--7--7-7---7--7-7----9--9
G--8--9-9---8--9-9---11-11
D--9--9-9---9--9-9---11-11
A--9--7-7---9--7-7----9--9
E--7--7-7---7--7-7 ---9--9
B E B E
Gb B E B
e--7--7-7---7--7-7----9--9----7--7--7
B--7--7-7---7--7-7----9--9----7--7--7
G--8--9-9---8--9-9---11-11----8--9--8
D--9--9-9---9--9-9---11-11----9--9--9
A--9--7-7---9--7-7----9--9----9--7--9
E--7--7-7---7--7-7----9--9----7--7--7
1.B
F#
Aqui me tiene bien clavado
G#m
Son tantas las penas en un bar
E
Brindando por tu amor
RIFF A
e-------------------2-B---2-----4--4------2--

G---2-----4--4--------B
F#m
Aqui me tiene abandonado
G#m
Bebiendo tequila pa'olvidar
E
Y sacudirme hacia el dolor
BRIDGE
B F#
G#m
Donde estas bendita?
B E
F#
Donde te has metido?
D#
E#
Abre un poco el corazon
D#
E#
Deja amarte corazon
D#
E# F#
Ven y sacame de este bar
CORO:
B
Estoy clavado,
D#m
Estoy herido,
G#m
E
Estoy ahogado en un bar
B
Desesperado,
D#m
En el olvido amor,
G#m
E
Estoy ahogado en un bar

Hey!

INTRO
2.B
F#
Se que te gustan demasiados
G#m
Que te pretende cantidad
E
Pero eso no es felicidad
B
F#
Y mi amor nunca se raja
G#m
Y mi amor nunca jamas te va a fallar
E
Nunca jamas
BRIDGE
CORO

CORO 2:
B
Voy desesperado,
D#m
Voy en el olvido,
G#m
E
Estoy ahogado en un bar
3.G#m
E
Dejate querer amor
B
Quiero ser tu todo
D#m
Y tu corazon
G#m
E
Ven a rescatarme amor
B
Yo quiero ser tu sol
F#m
Yo quiero ser tu mar Oooohhh!
SOLO: (primera version)
e------------------------------------B---------13----15-16-------13--15-16G---11\13----13--------11\13------13-D------------------------------------A------------------------------------E------------------------------------e--12-13---15----13/12/10------------B------------------------------------G--------------------------12h14p12-12
D------------------------------------A------------------------------------E------------------------------------e-------------------------------------B-------------------------------------G--12h14p12---12-----12h14p12--12-----D-------------------------------------A-------------------------------------E-------------------------------------e-----4\7--8--6--4--------------------B-------------------------------------G-------------------------------------D-------------------------------------A-------------------------------------E-------------------------------------4.B

F#

Aqui me tienen embriagado


G#m
Llorando de rabia en un bar
E
Brindando por su amor
RIFF A
e--------------------2-----B---2-----4--4-------2-----G---2-----4--4-------------B
F#
Aqui me tiene bien clavado
G#m
Tomando tequila pa'olvidar todo
E
No es justo amor
CORO 2
FINAL:
B E B E
Gb
e--7--7-7---7--7-7----9--9--B--7--7-7---7--7-7----9--9--G--8--9-9---8--9-9---11-11--D--9--9-9---9--9-9---11-11--A--9--7-7---9--7-7----9--9--E--7--7-7---7--7-7----9--9--B E B E Gb B B B
e--7--7-7---7--7-7---9--9---7---7-7-B--7--7-7---7--7-7---9--9---7---7-7-G--8--9-9---8--9-9--11-11---8---8-8-D--9--9-9---9--9-9--11-11---9---9-9-A--9--7-7---9--7-7---9--9---9---9-9-E--7--7-7---7--7-7---9--9---7---7-7
Clavado En
Un Bar
>
>
>INTRO
>
>Oh yeah!
>
> B E B E
F#
e--7--7-7---7--7-7----2-2B--7--7-7---7--7-7----2-2G--8--9-9---8--9-9----3-3D--9--9-9---9--9-9----4-4A--9--7-7---9--7-7----4-4E--7--7-7---7--7-7----2-2-

La ultima vez se toca asi:


B E B E
B E B G#
e--7--7-7---7--7-7--------7--7--7---4B--7--7-7---7--7-7--------7--7--7---4G--8--9-9---8--9-9--------8--8--9---5D--9--9-9---9--9-9--------9--9--9---6A--9--7-7---9--7-7--------9--9--7---6E--7--7-7---7--7-7--------7--7--7---4>1.> B
F#
>Aqui me tiene bien clavado
>
G#m
>Son tantas las penas en un bar
>
E
>Brindando por tu amor
>
> RIFF A
>
e--------------------B--------------6-----G----5--5\7--7-------> B
F#m
>Aqui me tiene abandonado
>
G#m
>Bebiendo tequila pa'olvidar
>
E
>Y sacudirme hacia el dolor
>
>BRIDGE
>
>B F#
G#m
> Donde estas bendita?
>B F#
G#m
> Donde te has metido?
>D#
E#
>Abre un poco el corazon
>D#
E#
>Deja amarte corazon
>D#
E# F#
>Ven y sacame de este bar
>
>CORO:
>
>
B
>Estoy clavado,
>
D#m F#m F
>Estoy herido,
>G#m
E
>Estoy ahogado en un bar
>
B
>Desesperado,
>
D#m F#m F
>En el olvido amor,
>G#m
E

>Estoy ahogado en un bar Hey!


>
>INTRO
>
>2.> B
F#
>Se que te gustan demasiados
>
G#m
>Que te pretende cantidad
>
E
>Pero eso no es felicidad
> B
F#
>Y mi amor nunca se raja
>
G#m
>Y mi amor nunca jamas te va a fallar
>
E
>Nunca jamas
>
>BRIDGE
>
>CORO
>
>CORO 2:
>
B
>Voy desesperado,
>
D#m
>Voy en el olvido,
>G#m
E
>Estoy ahogado en un bar
>
>3.>G#m
E
>Dejate querer amor
>
B
>Quiero ser tu todo
>
D#m
>Y tu corazon
>G#m
E
>Ven a rescatarme amor
>
B
>Yo quiero ser tu sol
>
F#m
>Yo quiero ser tu mar Oooohhh!
>
>SOLO: (Como en el CD, la segunda parte es muy rapida asi que
practicale!)
>
e--------------------------------------------14-12^11---------------B---------12----14--16--------12---14--16-17----------14~~----------G---10\11----11---11-----10\11---11--11-----------------------------D-------------------------------------------------------------------A-------------------------------------------------------------------E-------------------------------------------------------------------En esta parte son ligados muy rapido.
e-----------------------|-----------------------17-16^--------------

B-----------------------|--------------14-15-17~------------------G-13\15--16-13-15-16-13-|------13-14-16----------------------------D-----------------------|14-16-------------------------------------A-----------------------|------------------------------------------E-----------------------|------------------------------------------Y siguen los ligados


e-16-16-17-16-14----------------------17-16-14--17-16-14--17-16-14--17-16-14B---------------17-16-14------------17--------17--------17--------17--------G-----------------------16-15-13--------------------------------------------D--------------------------------16-----------------------------------------A---------------------------------------------------------------------------E---------------------------------------------------------------------------e---17-16-14-17-16-14-17-16-14----------------------------------------------B-17--------------------------17-16-14-17-16-14-17-16-14--------------------G-------------------------------------------------------16\18-15\16-18-16-15D---------------------------------------------------------------------------A---------------------------------------------------------------------------E---------------------------------------------------------------------------e--------------------------------------------------------------B--------------------------------------------------------------G-16-18-16-15-16--18-16-15-16--18-16-15-16~-15-16-15-13~--13\O-D--------------------------------------------------------------A--------------------------------------------------------------B-------------------------------------------------------------->
>4.> B
F#
>Aqui me tienen embriagado
>
G#m
>Llorando de rabia en un bar
>
E
>Brindando por su amor
>
>RIFF A
>
>
>
> B
F#
>Aqui me tiene bien clavado
>
G#m
>Tomando tequila pa'olvidar todo
>
E
>No es justo amor
>
>CORO 2
>
>FINAL:
>
B E B E
F#
e--7--7-7---7--7-7----2--2--B--7--7-7---7--7-7----2--2--G--8--9-9---8--9-9----3--3--D--9--9-9---9--9-9----4--4---

A--9--7-7---9--7-7----4--4--E--7--7-7---7--7-7----2--2-->
> B E B E F# B B B
e--7--7-7---7--7-7---2--2---7---7-7-B--7--7-7---7--7-7---2--2---7---7-7-G--8--9-9---8--9-9---3--3---8---8-8-D--9--9-9---9--9-9---4--4---9---9-9-A--9--7-7---9--7-7---4--4---9---9-9-E--7--7-7---7--7-7---2--2---7---7-7
<B-E-B-E-F#-F#> 3 veces , la cuarta <B-E-G#>
verso 1 (reggae):
B
aqu me tiene bien clavado
F#
soltando las penas en un bar
G#m
E
brindando por su amor
B
aqu me tiene abandonado
F#
bebiendo tequila pa'olvidar
G#m
E
y sacudirme as el dolor

pre chorus:
B
F# G#m
dnde est s bendita
B
E
F#
dnde te has metido
D#m
E
abre un poco el corazn
D#m
E
deja amarte corazn
D#m
E
F#
ven y sacame de este bar

chorus:
B
D#m
Estoy clavado, estoy herido
G#m
E
estoy ahogado en un bar
B
D#m
desesperado en el olvido amor
G#m
E
estoy ahogado en un bar

<B-E-B-E-F#-F#> 2X

verso 2: (los mismos acordes del verso 1)


Se que te buscan demasiados
que te pretenden cantidad
pero eso no es felicidad
y mi amor nunca se raja
y mi amor nunca jam s te va a fallar
nunca jam s
pre chorus: (same chords)
dnde est s maldita
dnde te has metido
abre un poco el corazn
deja amarte corazn
ven y sacame de este bar
ESTRIBILLO.
introduccin:
C#m
E
dejate querer amor
B
quiero ser tu todo
D#m
y tu corazn
B-C#m
E
ven a rescatarme amor
B
yo quiero ser tu sol
F#
yo quiero ser tu mar

solo.
E---------------------------------------------------------------------------------B-----------------------------17--19---17-h-19-p-17---14--------------------------G-----16--18--20----16--18--20--------------------------------15-16-13--15p16-13--D--/16--16--16---/16--16--16------------------------------------------------------A---------------------------------------------------------------------------------E---------------------------------------------------------------------------------I-----------very fast--------------------------------------------------------I
E---------------------------19-----------I
I

B--------------------19b(21)--21--20b(21)I
I
G-----------16-18p16---------------------I haven't figured I
D--16-18-20------------------------------I this part out, yet!!I
A----------------------------------------I
I
E----------------------------------------I
I
(parecido a ,sto, pero no exacto)
verso 3: (lo mismo del verso 1)
aqu me tiene embriagado
llorando de rabia en un bar
brindando por su amor
aqu me tiene bien clavado
bebiendo tequila pa'olvidar
no es justo amor
(lo mismo del estribillo)
muy desesperado
muy en el olvido
estoy ahogado en un bar
muy desesperado
muy en el olvido
no, no, no, no,
estoy ahogado en un bar
<B-E-B-E-F#-F#> 3X la cuarta <B-E-B-E-F#-F#-B----B-B>
Bm
A
G
D
A chico Mendez lo mataron era un defensor y un angel de toda la amazonia
Bm
A
G
D
el muri a sangre fra lo saba color de melo y tambien la polica
F#m
Bm
G
D
cuando los angeles lloran lluvia cae sobre la aldea lluvia sobre el campanario
A
pues alguien muri
CORO
G

D A
Un angel cay,
G
D A
un angel muri,
G
D A
un angel se fu
G
D A G
y no volver
Cuando el asesino hua chico Mendez se mora la selva se ahogaba en llanto
el dejo dos lindos crios una esposa valerosa y una selva en agona

cuando los angeles lloran es por cada rbol que muere cada estrella que se apaga
oh no no no
CORO
G

D A
Un angel cay,
G
D A
un angel muri,
G
D G
un angel se fu
D
se fu volando de madrugada
Bm 224432
A xx222x
G 32xx33
D xxx232
F#m 244222
ARREGLOS ESPECIALES: SERGIO PEREZ "EL 1"
E/--2------2-0-------3-----3-2-0-------|---2------2-0-------3-----3-0-3-2-0-2-|
B/--3----3-----3-0---3---3-------2-----|---3----3-----3-0---3---3-------------|
G/--2--2-----------2-4-4-----------2---|---2--2-----------2-4-4---------------|
D/--0----------------x-----------------|---0----------------x-----------------|
A/-------------0-----x---------0-------|------------0-------x------0--------0-|
E/-------------------3-----------------|--------------------3-----------------|
E/-2-5-3-2-0---0-----0-|-2-2-----------------------|-0-2-3-2-0-----------|----|
B/-3---------3-2---2---|-3---5-3-2-0---0-----3-----|-----------3-3-2-0-2-|----|
G/-2-------------0-----|-4-----------2---0-2---0---|---------------------|-2--|
D/-0-----------2-------|-4-----------------------2-|---------------------|----|
A/-------------0-------|-2-------------------------|---------------------|----|
E/---------------------|---------------3---2---0---|-------------0------ |----|
E/-2-5-3-2-0---0-----0-|-2-2-----------------------|-0-2-3-2-0-----------|----|
B/-3---------3-2---2---|-3---5-3-2-0---0-----3-----|-----------3-3-2-0-2-|----|
G/-2-------------0-----|-4-----------2---0-2---0---|---------------------|-2--|
D/-0-----------2-------|-4-----------------------2-|---------------------|----|
A/-------------0-------|-2-------------------------|---------------------|----|
E/---------------------|---------------3---2---0---|-------------0------ |----|
E/---------0-2-3-5---2-0-----------------|
B/---0-2-3-------3-3-----3-2-------3-2h3-|
G/-2-------------2---------------4-------|
D/-----------------------------4---------|
A/-------------------0-------2-----------|
E/-----------------------2---------------|
E/--------------------------|--------------------------|
B/----------3-----3-----3---|----------3-----3-----3---|
G/---2---2------2-----2-----|---2---2------2-----2-----|
D/-4---5------4-----5-----4-|-4---5------4-----5-----4-|
A/--------------------------|--------------------------|

E/--------------------------|--------------------------|
E/--------------------------|--------------------------|
B/----------3-----3-----3---|----------3-----3-----3---|
G/---2---2------2-----2-----|---2---2------2-----2-----|
D/-4---5------4-----5-----4-|-4---5------4-----5-----4-|
A/--------------------------|--------------------------|
E/--------------------------|--------------------------|

Bm
A
G
D
A chico Mendez lo mataron era un defensor y un angel de toda la amazonia
Bm
A
G
D
el muri a sangre fra lo saba color de melo y tambien la polica
F#m
Bm
G
D
cuando los angeles lloran lluvia cae sobre la aldea lluvia sobre el campanario
A
pues alguien muri
CORO
Bm G
Un angel cay,
D A
un angel muri,
D A
un angel se fu
D A
y no volver
Cuando el asesino hua chico Mendez se mora la selva se ahogaba en llanto
el dejo dos lindos crios una esposa valerosa y una selva en agona
cuando los angeles lloran es por cada rbol que muere cada estrella que se apaga
oh no no no
intermadio
*cada comps se debe de repetir 4 veces
Bm
G
D
A
Bm
D
G
A
E/---------|---------|---------|-----------|------2-2-|------2-2-|------3-3-|------2-2-|
B/-----3-3-|-----3-3-|-----3-3-|-------3-3-|--3-3-3-3-|--3-3-3-3-|--3-3-3-3-|--3-3-3-3-|
G/-4-4-----|-4-4-----|-4-4-----|--4-4------|--4-4-----|--4-4-----|--4-4-----|--4-4-----|
D/---------|---------|---------|-----------|----------|----------|----------|----------|
A/---------|---------|---------|-----------|----------|----------|----------|----------|
E/---------|---------|---------|-----------|----------|----------|----------|----------|
E/-----------2-----|-----5-6---------|----------3-------------------|----------------|
B/-----2-3-5---5b7-|-6b7-----7-5-3-2-|-2t-3-5-5---3-5-2-3---2-------|----------3-2---|
G/-3h4-------------|-----------------|--------------------4---2-----|----------------|
D/-----------------|-----------------|--------------------------5-4-|-4t-4-4-4-----4-|

A/-----------------|-----------------|------------------------------|----------------|
E/-----------------|-----------------|------------------------------|----------------|
E/------------7-6-7-9-|-9t-10-12-9-10-7-9----7-------------------------------------|
B/---------2----------|-------------------10---8-10-7-8-5-7-3-2-5v-3-2---2-3-5-----|
G/---2-3-4----7-6-7-9-|------------------------------------------------4-------3h4-|
D/-4------------------|------------------------------------------------------------|
A/--------------------|------------------------------------------------------------|
E/--------------------|------------------------------------------------------------|
CORO
G

D A
Un angel cay,
G
D A
un angel muri,
G
D G
un angel se fu
D
se fu volando de madrugada
Bm 224432
A xx222x
G 32xx33
D xxx232
F#m 244222
Intro:
G Bm Am D
G Bm Am D G
G
Teniamos solo algunos aos
Bm
Am
Cuando entonces yo te conoci
D
En el palmar
G
Teniamos la cabeza llena
Bm
Am
De ideales y repleto el corazon
D
De amor
G
Fuiste mi profunda vida
Bm
Fuiste mi profunda herida
Am
D
fuiste mi primer amor
G
Eres lo que mas recuerdo

Bm
Eres lo que yo he soado
Am
D
fuiste mi mejor amor
G G
Ohh amor..
CORO:
Am D
G
Em Am
Como, como te extrao corazon
D
G
yo no te puedo olvidar
Am D
G
Em Am
Como, como te extrao corazon
D
G
yo no te puedo olvidar
(G Bm Am D) ( mismos accordes)
Ibamos siempre a caminar
Bajo esa lluvia que en verano cae
Sin parar
Siempre buscando la oscuridad
Buscando la libertad de explorar
Nuestra piel
Yo te di amor del bueno
Tu me diste amor del bueno
Empapados de amor
Me entregue profundamente
Te entragaste con el alma
Empapados en amor
Ohh amor...
CORO
Am D
G
En olvidar, se me pasa la vida soando ohh
Am D
G
En olvidar, se me ha ido la vida volando
CORO
Am
D
G
Yo no te puedo olvidar
Am
D
Em
Yo no te puedo olvidar
(G Em C D G) (hasta el final)
Ooooooh!
como te extao
Ooooooh!

como te amo
Ooooooh!
como te extrao corazon
(BIS).

Esta es una de mis favoritas


Espero suene bien :^ )
INTRODUCCIN : C7 EM7 Dm7 G7
E----------------------------8-|
B-------------------5--6--8----|
G----------4--5--7-------------|
D----5--7----------------------|
A------------------------------|
E------------------------------|
E-----------------------------|
B--6/8--6--5----------5-----6-|
G-------------7--6-------7----|
D-----------------------------|
A-----------------------------|
E-----------------------------|
E-----------------------------|
B--6/8--6--5----------5--6----|
G-------------7--6----------7-|
D-----------------------------|
A-----------------------------|
E-----------------------------|

C7
Tenamos slo algunos aos
Em7
Dm7
cuando entonces yo te conoc
G7
en el palmar
C7
tenamos la cabeza llena de ideales
Dm7
G7
y repleto el corazn de amor.
C7
Fuiste mi profunda vida
Em7
fuiste mi profunda herida
Dm7
G7
fuiste mi primer amor
C7
eres lo que ms recuerdo
Em7
eres lo que yo he soado

Em7

Dm7
G7
C7
fuiste m mejor amor, h amor.
Dm7 G7
Em7
Am7
Cmo,
cmo te extrao corazn
F7
G7
C7
yo no te puedo olvidar
Dm7 G7
Em7
Am7
Cmo,
cmo te extrao corazn
Dm7
G7
C7
yo no te puedo olvidar
C7
Ibamos siempre a caminar
Em7
Dm7
bajo esa lluvia que en verano
G7
cae sin parar
C7
siempre buscando la obscuridad
Em7
buscando la libertad
Dm7
G7
de expIorar nuestra piel.
C7
Yo te di amor del bueno
Em7
t me diste amor del bueno
Dm7
G7
empapados de amor
C7
me entregu profundamente
Em7
te entregaste con el alma
Dm7
G7 C
empapados en amor, oh amor.
Dm7 G7
Em7
Am7
Cmo,
cmo te extrao corazn
F7
G7
C7
yo no te puedo olvidar
Dm7 G7
Em7
Am7
Cmo,
cmo te extrao corazn
Dm7
G7
C7
yo no te puedo olvidar
F7 Em7
Am7
En olvidar se me pasa la vida soando
F7 Em7
Am7 G7
En olvidar se me ha ido la vida volando
Dm7 G7
Em7
Am7
Cmo,
cmo te extrao corazn
F7
G7
C7

yo no te puedo olvidar
Dm7 G7
Em7
Am7
Cmo,
cmo te extrao corazn
Dm7
G7
C7
yo no te puedo olvidar
C7
Oh oh oh oh oh oh
Am7

F7 G7 C

Intro:
C Am Dm G
C Am Dm G C
C
Tenamos solo algunos aos
Am
Dm
Cuando entonces yo te conoc
G
En el palmar
C
Tenamos la cabeza llena
Am
Dm
De ideales y repleto el corazn
G
De amor
C
Fuiste mi profunda vida
Am
Fuiste mi profunda herida
Dm
G
fuiste mi primer amor
C
Eres lo que mas recuerdo
Am
Eres lo que yo he soado
Dm
G
fuiste mi mejor amor
C C
Ohh amor..
CORO:
Dm G
C
Em Dm
Como, como te extrao corazn
G
C
yo no te puedo olvidar
Dm G
C
Em Dm
Como, como te extrao corazn
G
C
yo no te puedo olvidar
(C Am Dm G) ( mismos acordes)

Ibamos siempre a caminar


Bajo esa lluvia que en verano cae
Sin parar
Siempre buscando la oscuridad
Buscando la libertad de explorar
Nuestra piel
Yo te di amor del bueno
Tu me diste amor del bueno
Empapados de amor
Me entregue profundamente
Te entregaste con el alma
Empapados en amor
Ohh amor...
CORO
Am G
G
En olvidar, se me pasa la vida soando ohh
Am G
C
En olvidar, se me ha ido la vida volando
CORO
Am
G
C
Yo no te puedo olvidar
Am
G
C
Yo no te puedo olvidar
C
Ooooooh!
como te extrao
Am
Ooooooh!
como te amo
Dm
G
C
Ooooooh! Ooooooh!
como te extrao corazn
(BIS).
INTRO
E Emaj7 C#m
F#m
B
E A E
Iba caminando por las calles empapadas en olvido
F#m
B
E A E
iba por los parques con fantasmas y con ngeles cados
F#m
B
E
A
iba sin luz , iba sin sol , iba sin un sentido , iba murindome
F#m
B
E
A E
iba volando sobre el mar con las alas rotas .
F#m

A E

Hay amor , apareciste en mi vida y me curaste las heridas


F#m
B
E A E
hay amor , eres mi luna , eres mi sol , eres mi pan de cada da.
F#m
B
E
A
Apareciste con tu luz , no nunca te vallas , no no te vallas no
F#m
B
E
A E
eres la gloria de los dos , asta la muerte
B
C#m
C#m/B C#m/A#
En un mundo de ilusin , yo estaba desahuciado , estaba abandonado
A
B
viva sin sentido , pero llegaste t .
E B
C#m
E7
Hay amor , t eres mi religin
A G#m F#m
tu eres luz , tu eres mi sol
B
abre el corazn , abre el corazn .
INTRO
E Emaj7 C#m
F#m
B
E
A E
Hace tanto tiempo corazn , viv en dolor y en el olvido
F#m
B
E A E
hay amor ,eres mi bendicin , mi religin eres mi sol que cura el fro
F#m
B
E
A
G#m F#m
Apareciste con tu luz , noo no , no me abandones , no nunca mi amor
B
E
A
gloria de los dos , tu eres sol , tu eres mi todo , todo tu eres bendicin
B
C#m
C#m/B C#m/A#
En un mundo de ilusin , yo estaba desahuciado , estaba abandonado
A
B
viva sin sentido , pero llegaste t .
E B
C#m
E7
Hay amor , t eres mi religin
A G#m F#m
tu eres luz , tu eres mi sol
B
abre el corazn , abre el corazn .
E B
C#m
E7
Hay amor , t eres mi bendicin
A G#m F#m
tu eres luz , tu eres mi sol
B
abre el corazn , abre abre el corazn .
E
Emaj7
Vivir siempre a tu lado
C#m B
con tu luz

E
Emaj7
morir estando a tu lado
C#m B
eres gloria y bendicin
E
Emaj7
eres tu mi bendicin
C#m B
eres tu mi religin
E
Emaj7
C#m
B
eres tu mi eternidad y asta eres salvacin
E
Emaj7
C#m
no tenia nada , y hoy te tengo con la gloria
B
E Emaj7
con la gloria , con la gloria , amor amor amor amor amor
C#m B
E
eres tu mi bendicin , eres mi luz eres mi sol .
C#m/B: 746454
C#m/A#: 644654
Emaj7: 0211
INTRO
E Emaj7 C#m
F#m
G#m B
E A G#m
Iba caminando por las calles empapadas en olvido
F#m
G#m B
E A G#m
iba por los parques con fantasmas y con ngeles cados
F#m
G#m
B
E
A G#m
iba sin luz , iba sin sol , iba sin un sentido , iba murindome
F#m
G#m
B
E
A E
iba volando sobre el mar con las alas rotas .

F#m
G#m
B
E
A G#m
Hay amor , apareciste en mi vida y me curaste las heridas
F#m
G#m
B
E
hay amor , eres mi luna , eres mi sol , eres mi pan de cada da.
F#m
G#m
B
E
A
G#m
Apareciste con tu luz , no nunca te vallas , no no te vallas no
F#m
G#m
B
E
A E
eres la gloria de los dos , asta la muerte
B
C#m
B
A#
En un mundo de ilusin , yo estaba desahuciado , estaba abandonado
A
B
viva sin sentido , pero llegaste t .

E B
C#m
E7
Hay amor , t eres mi religin
A G#m F#m
tu eres luz , tu eres mi sol
B
abre el corazn , abre el corazn .

INTRO
E Emaj7 C#m
F#m
G#m B
E
A G#m
Hace tanto tiempo corazn , viv en dolor y en el olvido
F#m
G#m
B
hay amor , eres mi bendicin , mi religin
E A E
eres mi sol que cura el fro .
F#m
G#m B
E
A
G#m F#m
Apareciste con tu luz , noo no , no me abandones , no nunca mi amor
B
E
A
gloria de los dos , tu eres sol , tu eres mi todo , todo tu eres bendicin
B
C#m
B
A#
En un mundo de ilusin , yo estaba desahuciado , estaba abandonado
A
B
viva sin sentido , pero llegaste t .
E B
C#m
E7
Hay amor , t eres mi religin
A G#m F#m
tu eres luz , tu eres mi sol
B
abre el corazn , abre el corazn .
E B
C#m
E7
Hay amor , t eres mi bendicin
A G#m F#m
tu eres luz , tu eres mi sol
B
abre el corazn , abre abre el corazn .
E
Emaj7
Vivir siempre a tu lado
C#m B
con tu luz
E
Emaj7
morir estando a tu lado

C#m B
eres gloria y bendicin
E
Emaj7
eres tu mi bendicin
C#m B
eres tu mi religin
E
Emaj7
C#m
B
eres tu mi eternidad y asta eres salvacin
E
Emaj7
C#m
no tenia nada , y hoy te tengo con la gloria
B
E Emaj7
con la gloria , con la gloria , amor amor amor amor amor
C#m B
E
eres tu mi bendicin , eres mi luz eres mi sol .
Intro:
1. -4-4-4-4-8-8-8-4-8-4-6-3-|-3-3-3-3-6-6-6-3-6-3-4-1-|
2. -6-6-6-6-9-9-9-6-9-6-8-4-|-4-4-4-4-8-8-5-4-8-4-6-2-|
3. -------------------------|-------------------------|
4. -------------------------|-------------------------|
5. -------------------------|-------------------------|
6. -------------------------|-------------------------|
*riff princ.
1. -----4---4---4---3---1--------|------------|
2. 2/6---6---6---4---2---1-4-1--|------------|
3. ---------------------------1--|-1-0--------|
4. ------------------------------|-----3-1-3--|
5. ------------------------------|------------|
6. ------------------------------|------------|
Eres como una mariposa,
vuelas y te posas,
vas de boca en boca,
facil y ligera de quien te provoca.(riff princ.)
Yo soy raton de tu ratonera, (riff 1)
trampa que no mata
pero no libera,
vivo muriendo prisionero.
Mariposa traicionera, (riff 2)
todo se lo lleva el viento,
mariposa no regreso. (riff 3)
CORO:
Ay mariposa de amor,
mi mariposa de amor,
ya no regreso contigo, (riff 4)
ay mariposa de amor, (riff 5)
mi mariposa de amor,

nunca jamas junto a ti, (riff 6)


vuela amor, vuela dolor,
y no regreses a un lado, (riff 7)
ya vete de flor en flor, (riff 8)
seduciendo a los pistilos, (riff 9)
y vuela cerca del sol,
pa que sientas lo que es dolor.
*Solo:
1. -5-5-5-6-8-|---4--4-3-4-3-3-1-----4-3-4-3-4-3-4-3---1--|
2. -6-6-6-8-9-|-1----6-4-6-4-4-21/4---4-6-4-6-4-6-4-2----|
3. -----------|-------------------------------------------|
4. -----------|-------------------------------------------|
5. -----------|-------------------------------------------|
6. -----------|-------------------------------------------|
1. -1-3-1-3-4-3-1-----|-1-3-4-4-6-(8)----------|
2. -2-4-2-4-6-4-2-3-0-|-2-4-6-6-8-(9)----------|
3. ---------------4-0-|-------------3-0--------|
4. -------------------|-----------------3-1-3--|
5. -------------------|------------------------|
6. -------------------|------------------------|
Ay mujer como haces dao,
pasan los minutos cual si fueran aos,
mira estos celos me estan matando. (riff 10- riff princ.)
Ay mujer que facil eres,
abres tus alitas, muslos de colores,
donde se posan tus amores. (riff 11)
Mariposa traicionera,
todo se lo lleva el viento, (riff 12)
mariposa no regreso. (riff 13)
-Mismos arreglos:
Ay mariposa de amor,
mi mariposa de amor,
ya no regreso contigo,
ay mariposa de amor,
mi mariposa de amor,
nunca jamas junto a ti,
vuela amor, vuela dolor,
que tengas suerte en tu vida, (riff 14)
ay ay ay ay ay dolor,
yo te llore todo un rio,
ay ay ay ay ay amor,
tu te me vas a volar.
*Outro:
1. -5-5-5-6-8-|
2. -6-6-6-8-9--|
3. ------------|

4. ------------|
5. ------------|
6. ------------|
1. -4-4-4-4-8-8-8-4-8-4-6-3-|-3-3-3-3-6-6-6-3-6-3-4-1-|
2. -6-6-6-6-9-9-9-6-9-6-8-4-|-4-4-4-4-8-8-5-4-8-4-6-2-|
3. -------------------------|-------------------------|
4. -------------------------|-------------------------|
5. -------------------------|-------------------------|
6. -------------------------|-------------------------|
1. -----4---4---4---3---1-------------3-4-6-4-|------------|
2. 2/6---6---6---4---2---1-4-1---4-6---------|------------|
3. -------------------------------------------|-1-0--------|
4. -------------------------------------------|-----3-1-3--|
5. -------------------------------------------|------------|
6. -------------------------------------------|------------|
_______________________________________________________________________________________
riff 1: riff 2:
riff 3:
riff 4: riff 5:
1. -6-8-6-|-8-11-8--8-11-8--8-11-13-8-11-13-8-|-3-5-6/8-6-5--8-|---3-------|-----5--|
2. -------|-----------------------------------|-5-68/9-8-6-9--|-5---5-3-5-|-3/6----|
3. -------|-----------------------------------|----------------|-----------|--------|
4. -------|-----------------------------------|----------------|-----------|--------|
5. -------|-----------------------------------|----------------|-----------|--------|
6. -------|-----------------------------------|----------------|-----------|--------|
riff 6:
riff 7:
riff 8:
riff 9:
1. -5--9-5--9-5-|-8-8-8-8h10-12-12/13-|-5-5-5h6-8-10-13-12-|---------------|
2. -6-10-6-10-6-|---------------------|-----------11-15-13-|---3-1---------|
3. -------------|---------------------|--------------------|-3-----3-0---2-|
4. -------------|---------------------|--------------------|-----------2---|
5. -------------|---------------------|--------------------|---------------|
6. -------------|---------------------|--------------------|---------------|
riff 10:
riff 11:
riff 12:
riff 13:
1. ----8---6---4-|-----6/8----6/7----4/6-|-3-6-3-------|-3-4-6--8-10-12--|
2. -/6---4---2---|--/6-----/5-----/4-----|-4-8-4-6-6-6-|-4-6-8-10-12-13--|
3. --------------|-----------------------|-------------|-----------------|
4. --------------|-----------------------|-------------|-----------------|
5. --------------|-----------------------|-------------|-----------------|
6. --------------|-----------------------|-------------|-----------------|
riff 14:
1. -1-1-3-3-5-5-6-6-8-8-8-13131313131313131313--|
2. ---------------------------------------------|
3. ---------------------------------------------|
4. ---------------------------------------------|
5. ---------------------------------------------|
6. ---------------------------------------------|
INTRO
Em D C G

Em
D
Eres como una mariposa, vuelas y te posas
C
vas de boca en boca
G
fcil y ligera de quien te provoca
Em
D
Yo soy raton de tu ratonera
C
trampa que no mata pero no libera
G
vivo muriendo prisionero.
C D
G
Mariposa traicionera
Em
todo se lo lleva el viento
C D
B7
mariposa no regreso.
E
Ay, mariposa de amor, mi mariposa de amor,
B
ya no regreso contigo
F#m
*
B7
ay, mariposa de amor, mi mariposa de amor,
E
nunca jamas junto a ti
vuela amor, vuela dolor,
A
y no regreses a un la'o
E
y brete de flor en flor
B7
E
A
seduciendo a los pistilos
E
y vuela cerca del sol
B7
E
pa' que sientas lo que es dolor.
OTRA VEZ EL INTRO
Con los mismos acordes de la primera estrofa:
Ay mujer, como haces dao
pasan los segundo cual si fueran aos
mira estos celos me estn matando.
Ay mujer, que fcil eres
abres tus alitas, muslos de colores
donde se posan tus amores.

C D
G
Mariposa traicionera
Em
todo se lo lleva el viento
C D
B7
mariposa no regreso.
E
Ay, mariposa de amor, mi mariposa de amor,
B
ya no regreso contigo
F#m
*
B7
ay, mariposa de amor, mi mariposa de amor,
E
nunca jamas junto a ti
vuela amor, vuela dolor,
A
que tengas suerte en tu vida
E
ay, ay, ay, ay, ay, dolor
B7
E
yo te llor todo un ro
A
E
ay, ay, ay, ay, ay, amor
B7
E
t te me vas a volar.
* A:002220
A/B:022222
incluso B:224442
1ra. Guitarra, Electroacstica (capo 5to. Traste):
1. -------------8-8-8----8--6---|-----------6-6-6----6--------|
2. --9--9--9--9-9-9-9--9-9--8-8-|-8-8-8-8-8-8-8-8-8--8-8--9-6-|
3. -10-10-10-10-------10------8-|-8-8-8-8-8-------8----8-10-6-|
4. -----------------------------|-----------------------------|
5. -----------------------------|-----------------------------|
6. -----------------------------|-----------------------------|
1. --------------------------------|------------|
2. -----9--9--9----9---8---6-------|------------|
3. -/10--10-10-10----8---6---6-8-5-|------------|
4. ------------------------------6-|-/6-5-------|
5. --------------------------------|------8-6-8-|
6. --------------------------------|------------|
*Verso:
-2da. Guitarra, Electroacstca (capo 1er. Traste):

-3ra. Guitarra, Elctrica


Em
D
C
Eres como una mariposa, vuelas y posas vas de boca en boca,
1. ---8---8----8---8--|-----6------6------6------6-----|----4---|
2. ---9---9----9---9--|-----8------8------8------8-----|----6---|
3. --10--10---10--10--|-----8------8------8------8-----|----6---|
4. --10--10---10--10--|-----8------8------8------8-----|----6---|
5. -------------------|--------------------------------|--------|
6. -------------------|--------------------------------|--------|
G
fcil y ligera de quien te provoca.
1. -----4-----4-----4------|---4---4---4---|------------|
2. -----6-----6-----6------|---4---4---4---|------------|
3. -----6-----6-----6------|---5---5---5---|------------|
4. -----6-----6-----6------|---6---6---6---|-/6-5-------|
5. ------------------------|---------------|------8-6-8-|
6. ------------------------|---------------|------------|
Em
D (riff 1)
C
Yo soy ratn de tu ratonera, trampa que no mata pero no libera,
1. ---8----8----8----8--|-----6------6------6------6-----|----4---|
2. ---9----9----9----9--|-----8------8------8------8-----|----6---|
3. --10---10---10---10--|-----8------8------8------8-----|----6---|
4. --10---10---10---10--|-----8------8------8------8-----|----6---|
5. ---------------------|--------------------------------|--------|
6. ---------------------|--------------------------------|--------|
G
vivo muriendo prisionero.
1. ---4---4---4---|---4---4---4---|
2. ---6---6---6---|---4---4---4---|
3. ---6---6---6---|---5---5---5---|
4. ---6---6---6---|---6---6---6---|
5. ---------------|---------------|
6. ---------------|---------------|
*Puente:
C D
G (riff2)
Em
Mariposa traicionera, todo se lo lleva el viento,
1. -4-4--6--6--|-----4------4------|-----8-----8----|
2. -6-6--8--8--|-----5------5------|-----9-----9----|
3. -6-6--8--8--|-----6------6------|----10----10----|
4. -6-6--8--8--|-----6------6------|----10----10----|
5. ------------|-------------------|----------------|
6. ------------|-------------------|----------------|
C D
B7 (riff 3)
Mariposa no regreso.
1. -4-4--6--6--|--3--3--|
2. -6-6--8--8--|--5--5--|
3. -6-6--8--8--|--5--5--|
4. -6-6--8--8--|--5--5--|
5. ------------|--------|

6. ------------|--------|
*Coro:
E
Ay, mariposa de amor, mi mariposa de amor,
B
ya no regreso contigo, (riff 4)
F#m (riff 5)
B7
ay, mariposa de amor, mi mariposa de amor,
E
nunca jamas junto a ti, (riff 6)
E7
vuela amor, vuela dolor,
A
y no regreses a un lado, (riff 7)
E
ya vete de flor en flor, (riff 8)
B7
E
seduciendo a los pistilos, (riff 9)
A
E
y vuela cerca del sol,
B7
E
pa que sientas lo que es dolor.
*Solo:
-1ra. Guitarra, Electroacstica (capo 5to. Traste):
1. ----------------|----------------------|---------------------------|
2. -10-10-10-11-13-|---9---9-8---9-8--8-6-|-----9--8--9-8---9-8---9-8-|
3. -10-10-10-12-14-|-5----10-8--10-8--8-6-|-6/8----8-10-8--10-8--10-8-|
4. ----------------|----------------------|---------------------------|
5. ----------------|----------------------|---------------------------|
6. ----------------|----------------------|---------------------------|
1. ---------------------------|--------------|------------|
2. ---6--6-8-6--8--9-8-6------|--------------|------------|
3. -6----6-8-6--8-10-8-6--8-5-|--------------|------------|
4. ----------------------10-6-|----------6-5-|-/6-5-------|
5. ---------------------------|----5-6-8-----|------8-6-8-|
6. ---------------------------|--8-----------|------------|

*Verso:
-2da. Guitarra, Electroacstca (capo 1er. Traste):
-3ra. Guitarra, Elctrica
Em

Ay mujer, cmo haces dao, pasan los minutos cual si fueran aos,
1. ---8----8----8---8--|---6-------6-------6-------6------|----4---|
2. ---9----9----9---9--|---8-------8-------8-------8------|----6---|
3. --10---10---10--10--|---8-------8-------8-------8------|----6---|
4. --10---10---10--10--|---8-------8-------8-------8------|----6---|
5. --------------------|----------------------------------|--------|
6. --------------------|----------------------------------|--------|
G (riff 10)
mira estos celos me estn matando.
1. -----4-----4-----4----|---4---4---4---|------------|
2. -----6-----6-----6----|---4---4---4---|------------|
3. -----6-----6-----6----|---5---5---5---|------------|
4. -----6-----6-----6----|---6---6---6---|-/6-5-------|
5. ----------------------|---------------|------8-6-8-|
6. ----------------------|---------------|------------|
Em
D
C
Ay mujer, que fcil eres, abres tus alitas muslos de colores,
1. ---8---8---8---8--|---6------6-------6------6------|----4---|
2. ---9---9---9---9--|---8------8-------8------8------|----6---|
3. --10--10--10--10--|---8------8-------8------8------|----6---|
4. --10--10--10--10--|---8------8-------8------8------|----6---|
5. ------------------|--------------------------------|--------|
6. ------------------|--------------------------------|--------|
G
donde se posan tus sabores.
1. ---4---4---4----|---4---4---4---|
2. ---6---6---6----|---4---4---4---|
3. ---6---6---6----|---5---5---5---|
4. ---6---6---6----|---6---6---6---|
5. ----------------|---------------|
6. ----------------|---------------|
*Puente:
(riff 11)
C D
G
Em
(riff 12)
Mariposa traicionera, todo se lo lleva el viento,
1. -4-4--6--6--|-----4------4------|-----8-----8----|
2. -6-6--8--8--|-----5------5------|-----9-----9----|
3. -6-6--8--8--|-----6------6------|----10----10----|
4. -6-6--8--8--|-----6------6------|----10----10----|
5. ------------|-------------------|----------------|
6. ------------|-------------------|----------------|
C D
B7 (riff 13)
Mariposa no regreso.
1. -4-4--6--6--|--3--3--|
2. -6-6--8--8--|--5--5--|
3. -6-6--8--8--|--5--5--|
4. -6-6--8--8--|--5--5--|
5. ------------|--------|
6. ------------|--------|

*Coro:
E
Ay, mariposa de amor, mi mariposa de amor,
B
ya no regreso contigo, (riff 4)
F#m (riff 5)
B7
ay, mariposa de amor, mi mariposa de amor,
E
nunca jamas junto a ti, (riff 5)
E7
vuela amor, vuela dolor,
A
que tengas suerte en tu vida, (riff 14)
E
ay, ay, ay, ay, ay dolor,
B7
E
yo te llor todo un ro, (riff 8)
A
E
ay, ay, ay, ay, ay amor,
B7
E
t te me vas a volar.
*Outro:
-1ra. Guitarra, Electroacstica (capo 5to. Traste):
1. ----------------|
2. -10-10-10-11-13-|
3. -10-10-10-12-14-|
4. ----------------|
5. ----------------|
6. ----------------|
1. ---------------------8-8-8----8--6---|-----------6-6-6----6--------|
2. ------9---9--9--9--9-9-9-9--9-9--8-8-|-8-8-8-8-8-8-8-8-8--8-8--9-6-|
3. ---------10-10-10-10-------10------8-|-8-8-8-8-8-------8----8-10-6-|
4. 8/10--------------------------------|-----------------------------|
5. -------------------------------------|-----------------------------|
6. -------------------------------------|-----------------------------|
1. --------------------------------|---------6---|------------|
2. -----9--9--9----9---8---6-------|---6-8-9---9-|------------|
3. -/10--10-10-10----8---6---6-8-5-|-8-----------|------------|
4. ------------------------------6-|-------------|-/6-5-------|
5. --------------------------------|-------------|------8-6-8-|
6. --------------------------------|-------------|------------|

*RIFFS:
-1ra. Guitarra, Electroacstica (capo 5to. Traste):
riff
riff
riff
1
2
3
1. -6-8-6-|----11-------11-----13-------13-|-------------------------|
2. -------|-13----13-13-----13----13-13----|-6-8--9--9/11--9------11-|
3. -------|--------------------------------|-6-8-10-10/12-10-10-12---|
4. -------|--------------------------------|-----------------11------|
5. -------|--------------------------------|-------------------------|
6. -------|--------------------------------|-------------------------|
riff
riff
riff
riff
4
5
6
7
1. ------------------|----------|-8--9-8--9-8-|-777h8-12-12/13-|
2. ------------------|-8/98h11-|-9-11-9-11-9-|----------------|
3. -9-12-12-10-10/12-|-0--------|-------------|----------------|
4. ------------------|-0--------|-------------|----------------|
5. ------------------|----------|-------------|----------------|
6. ------------------|----------|-------------|----------------|
riff
riff
riff
8
9
10
1. ----------------10-13-12-|-----------------|-------------------|
2. -10-10-10h11-10-11-15-13-|-----------------|-----13----11----9-|
3. -------------------------|---8-6---------5-|-/10----/8----/6---|
4. -------------------------|-8-----8\7-6-8---|-------------------|
5. -------------------------|-----------------|-------------------|
6. -------------------------|-----------------|-------------------|
riff
riff
riff
11
12
13
1. ---------------------|--------------|---------8--9-10---13-|
2. -----13-----14----16-|-8-11-8-6-6-6-|-8--9-11-9-11-12-14---|
3. /10----/12----/13---|-8-12-8-6-6-6-|-8-10-12--------------|
4. ---------------------|--------------|----------------------|
5. ---------------------|--------------|----------------------|
6. ---------------------|--------------|----------------------|
riff
14
1. ---------------7-11111111101010----------------1111---|
2. ---------6-7-9-----------------1313131313111111----11-|
3. -----7-9----------------------------------------------|
4. -9-9--------------------------------------------------|
5. ------------------------------------------------------|
6. ------------------------------------------------------|
INTRO:
Fm
D#
C#
G#
e|--8--8--8--8---6-6-6-6--4-4-4-4--4-4-4-4--|
B|--9--9--9--9---8-8-8-8--6-6-6-6--4-4-4-4--|
G|--10-10-10-10--8-8-8-8--6-6-6-6--5-5-5-5--|
D|--10-10-10-10--8-8-8-8--6-6-6-6--6-6-6-6--|
A|------------------------------------------|

E|------------------------------------------|
e|--------------8-8-8----8----6----|
B|--9--9--9--9--9-9-9-9--9-9--8-8--|
G|--10-10-10-10-------10---10---8--|
D|---------------------------------|
A|---------------------------------|
E|---------------------------------|
e|----------6-6-6---6---4----|
B|--8-8-8-8-8-8-8-8-8-8-6-6--|
G|--8-8-8-8-------8---8---6--|
D|---------------------------|
A|---------------------------|
E|---------------------------|
e|---------------------4------|
B|-----6---6---6---6-6-6-6-4--|
G|--/6---6---6---6---6---6-5--|
D|----------------------------|
A|----------------------------|
E|----------------------------|
RIFF 1:
e|---------------|
B|---------------|
G|---------------|
D|--5/6-5-3-1-3--|
A|---------------|
E|---------------|
Fm
D#
Eres como una mariposa
C#
vuelas y te posas vas de boca en boca
G#
fcil y ligera de quien te provoca
Fm
D#
Yo soy ratn de tu ratonera
C#
trampa que no mata pero no libera
G#
vivo muriendo prisionero
C# D#
G#
Mariposa traicionera
Fm
(todo se lo lleva el viento)
C# D#
C
mariposa no regreso
F
Ay mariposa de amor, mi mariposa de amor
C
ya no regreso contigo

Gm
Ay mariposa de amor, mi mariposa de amor
F
nunca jams junto a ti
F
Vuela amor, vuela dolor
F7
A#
y no regreses a un lado
F
ya vete de flor en flor
C
F
seduciendo a los pistilos
A#
F
Y vuela cerca del sol
C
F
pa' que sientas lo que es dolor
INTRO
RIFF 1
Fm
D#
Ay mujer cmo haces dao
C#
pasan los minutos cual si fueran aos
G#
mira estos celos me estn matando
Fm
D#
Ay mujer que fcil eres
C#
abres tus alitas muslos de colores
G#
donde se posan tus sabores
C# D#
G#
Mariposa traicionera
Fm
(todo se lo lleva el viento)
C# D#
C
mariposa no regreso
F
Ay mariposa de amor, mi mariposa de amor
C
ya no regreso contigo
Gm
Ay mariposa de amor, mi mariposa de amor
F
nunca jams junto a ti
F
Vuela amor, vuela dolor

F7
A#
que tengas suerte en tu vida
F
ay, ay, ay, ay, ay dolor
C
F
yo te llor todo un ro
A#
F
ay, ay, ay, ay, ay amor
C
F
t te me vas a volar
INTRO
RIFF 1
TERMINA EN F
Intro
Fam - D# - C# - G# - Fm
|-------------8-8-8----8----6--------------6-6-6---6--------|
|--9--9--9--9-9-9-9--9-9--9-8-8--8-8-8-8-8-8-8-8-8-8-8--9\6-|
|-10-10-10-10-------10---10---8--8-8-8-8-8-------8---8-10\6-|
|-----------------------------------------------------------|
|-----------------------------------------------------------|
|-----------------------------------------------------------|
Outro
|--------------------------------------x--------------|
|-----9----9----9----9\---8\-----------x--------------|
|-/10---10---10---10\---8\----5--8-5---x---5----------|
|----------------------------/6-10-6---x---6--8-6-5-6-|
|--------------------------------------x-----10-8-6-8-|
|--------------------------------------x--------------|
- (*) Outro 2 guitarra -

|-------------|
|-------------|
|-------------|
|-5/6-5-------|
|-------8-6-8-|
|-------------|
Versos
Fm
D#
Eres como una mariposa
C#
vuelas y te posas vas de boca en boca
G#
fcil y ligera de quien te provoca (*)
Yo soy ratn de tu ratonera

trampa que no mata pero no libera


vivo muriendo prisionero
|----------------|
|----------------|
|----------------|
|-/6-6-6-6-5-----|
|------------8-7-|
|----------------|
Pre Coro
|-------9-------9--------11-------11--------11-------11--------13-------13-|
|-------9-------9--------11-------11-----13-------13--------13-------13----|
|-10-10---10-10----12-12----12-12-----13-------13--------13-------13-------|
|--------------------------------------------------------------------------|
|--------------------------------------------------------------------------|
|--------------------------------------------------------------------------|
|-------9-------9--------11-------11-|
|-------9-------9--------11-------11-|
|-10-10---10-10----12-12----12-12----|
|------------------------------------|
|------------------------------------|
|------------------------------------|
C# D#
G#
Mariposa traicionera
Fm
todo se lo lleva el viento
C# D#
C
mariposa no regreso
|--------------------|
|-5-6-8-/10-8-6-8/10-|
|--------------------|
|-5-7-8-/10-8-7-8/10-|
|--------------------|
|--------------------|
Coro
F
Ay mariposa de amor, mi mariposa de amor
C
ya no regreso contigo
(Fig. 1)
|------------6-x-6--|
|-8-8-8-6-8--8-x-5--|
|------------7-x-5--|
|-8-8-8-7-8---------|
|-------------------|

|-------------------|
Gm
C
ay mariposa de amor, mi mariposa de amor
F
nunca jams junto a ti
(Fig. 2)
|--8-10--8-10--8--10-10--8-|
|-10-10-10-10-10--10-10-10-|
|-10-10-10-10-10--10-10-10-|
|--------------------------|
|--------------------------|
|--------------------------|
F
F7
vuela amor, vuela dolor
A#
y no regreses a un lado
|-10-10-10-10-12-12/13-|
|-11-11-11-11-13-13/15-|
|----------------------|
|----------------------|
|----------------------|
|----------------------|
A#
F
ya vete de flor en flor
|-5-5-5-6--8-10-13-12-12-|
|-6-6-6-8-10-11-15-13-13-|
|------------------------|
|------------------------|
|------------------------|
|------------------------|
C
F
seduciendo, a los pistilos
(Fig. 3)
|-----------------------|
|-----------------------|
|---7-5-----------------|
|-7-----8-7/8\7-5-7-7/8-|
|-----------------------|
|-----------------------|
A#
F
y vuela cerca del sol
C
F
pa' que sientas lo que es dolor
Coro Out

|-5-5-5-6-8-|
|-----------|
|-5-5-5-7-9-|
|-----------|
|-----------|
|-----------|
Solo
F#m - D# - C# - G# - * Fm
|------------------------6------------------------------------------|
|----9-6-8-6-8-6-8-6--------8-9-8-9-8-9-8---6--6-8-6-8--9-8-6-------|
|-5--5-5-5-5-5-5-5-5-6/8-----------------------------8-10-8-6--8\-5-|
|---------------------------8-8-8-8-8-8-8-6----6-6-6----------10\-6-|
|-------------------------------------------------------------------|
|-------------------------------------------------------------------|
(*)
|---------6---6/8-6-------|
|---6-8-9---9-------9-8-9-|
|-8-----5-6-5---5---------|
|-5-6-8-----------8-6-5-6-|
|-------------------------|
|-------------------------|
Versos 2 parte
Ay mujer cmo haces dao
pasan los minutos cual si fueran aos
mira estos celos me estn matando (*)
|---------------------------------|
|-------13\----11\----9\---8\---6-|
|---------------------------------|
|-11/13\----11\----10\---8\---6---|
|---------------------------------|
|---------------------------------|
Ay mujer qu fcil eres
abre tus alitas muslos de colores
donde se posan tus amores
Pre Coro 2
(X)
|------8--------11--------11--------13-------13--------9-------9-------11-------11-|
|--------------------------------13-------13-----------9-------9-------11-------11-|
|-8/10----10/12-----12/13-----13-------13--------10-10---10-10---12-12----12-12----|
|----------------------------------------------------------------------------------|
|----------------------------------------------------------------------------------|
|----------------------------------------------------------------------------------|
- lo que sigue se toca sobre los punteos donde esta la (X)|---------------|
|--9-8-11-8-6-6-|

|---------------|
|-10-8-11-8-6-6-|
|---------------|
|---------------|
Mariposa traicionera
todo se lo lleva el viento
mariposa no regreso
|---5-6-8-10-12-12/13-|
|-8-------------------|
|---5-7-9-10-12-12/14-|
|-8-------------------|
|---------------------|
|---------------------|
Coro 2
Ay mariposa de amor, mi mariposa de amor
ta no regreso contigo (Fig. 1)
ay mariposa de amor mi mariposa de amor
nunca jams junto a ti (Fig. 2)
vuela amor, vuela dolor
que tengas suerte en tu vida
|-------------------------------------|
|---------------8-8-10-10-11-11-13-13-|
|-7-7-9-9-10-10-----------------------|
|-------------------------------------|
|-------------------------------------|
|-------------------------------------|
- los siguiente va con un rasgeo rpido, slo en las 2 cuerdas que se tocan |-13--12-10--8-|
|-15--13-11-10-|
|x-------------| ayayayayay dolor
|x-------------|
|x-------------|
|x-------------|
yo te llor todo un ro (Fig. 3)
ayayayayay amor
t te me vas a volar
|-5-5-5-6-8---------|
|-----------------9-|
|-5-5-5-7-9---------|
|-------------8/10--|
|-------------------|
|-------------------|
- luego se toca la Intro, que va as (*)
|---------6---6/8-6-------|

|---6-8-9---9-------9-8-9-|
|-8-----5-6-5---5---------|
|-5-6-8-----------8-6-5-6-|
|-------------------------|
|-------------------------|
- Fin
Opening is to be played with the beat form the song.
Opening
E-----7---7---7---5--------------B-----7---7---7---5--------------G-----x---x---x---x---------------D-----x---x---x---x---------------A-----x---x---x---x---------------E-----x---x---x---x----------------X=mute the note
(opening is played along with verses)
No sabes como te deseyo.
(quick solo parts is done 2X)
E--------------------------------------------------------B-----------------------7----8-------------------------G----------7-----------------------6-------------------D-----9--------9----------------------------------------A----------------------------------------------------------E----------------------------------------------------------No sobes como te sonado.
Intro: Fm#/VII-Fm#/VII-Fm#/VII-BmIX
(ocho veces)
Fm#/VII (el acorde va en el septimo traste)
Bm/IX (el acorde va en el noveno traste)
++
(el acorde Fm#/VII, se repite cuatro veces)
*** (se repite el punteo)
++ (Fm#/VII)
No sabes como te deseo
***---------7---------------------------------------------***-----------7-8-----------7-8---------------------------***----7----------------7---------------------------------***--9---9------------9---9------9----------------------***------------------------------------------------------***------------------------------------------------------++
No sabes como te sonado (***)
++
Si tu supieras que me muero (***)
++
Por tu amor y por tus labios (***)

++
Si tu supieras que soy sincero (***)
++
Que yo soy derecho y no te fallo (***)
++
Si tu supieras lo que te quiero (***)
++
Podria darte todo hasta mi ojos (***)
2. LA
Bm
Pero tu ya tienes otro
LA
Bm
Un tipo frio y aburrido
LA
G
Un tonto que es un reprimido
LA
Eso no te pega a ti
No te va (no no no)
3. D
Bm
Oye mi amor
F#m
No me digas que no
G
Y vamos juntando las almas
D
Bm
Oye mi amor
F#m
Bm
No me digas que no
G
Y vamos juntando los cuerpos
++
Conmigo tu alucinarias (***)
++
Conmigo tu ............
(Repetir 2,3)
Intro y versos
-x-x-9--x-x-9--x-x-9--x-7--7---x-x-11-x-x-11-x-x-11-x-10-10--x-x-10-x-x-10-x-x-10-x-9--9---x-x-9--x-x-9--x-x-9--x-7--7---x-x-9--x-x-9--x-x-9--x-7--7---------------------------------9--9--9---7--7--7--11-11-11--10-10-10-10-10-10--9--9--9--9--9--9---7--7--7--9--9--9---7--7--7--------------------versos se toca lo mismo
No sabes como te deseo (riff 1)

riff 1:
-------7----------------------------7-----------7-8------7-------7-----7-------7--7---7---------7---7-------------------------------------------------------------pre coro:
A
B
pero tu ya tienes otro
A
B
un tipo frio y aburrido
A
un tonto que es un reprimido
G B
A riff 2
eso no te permiti....no te va
A
----------------------------------2-------------------2-------------------2------------------------0-2-2-2-0-2-2-----coro
D A B
A
oye mi amor no me digas que no
D A B
A
vivamos juntando las almas
D A B
A
oye mi amor no me digas que no
D
A B
A
vivamos juntando los cuerpos
solo:
-------------7--7h8------7------7----7--------9-- X 2 times
------------------------Bm A G
-7- -5- -3-7- -5- -3-7- -6- -4-9- -7- -5-9- -7- -5-7- -5- -3-

Punteo 1(*)
e|----------7---------------------------------------------B|------------7-8-----------7-8---------------------------G|-----7----------------7----------------------------------

D|---9---9------------9---9------9------------------------A|--------------------------------------------------------E|--------------------------------------------------------Punteo 2(**)
B|---7-7-7-7-10-10-8--7-7-7-8--7
(Tiene algunas variaciones que son faciles de sacar a oido)
Riff (Quena)
e|--------------14-12----14-12------------14-12---B|---12--12--12-------12-------12--12--12-------12e|-------------14-12----14-12-14-14-14-12-14-|
B|--12--12--12-------12----------------------|
Intro: Bm-Bm-Bm-A |Riff
(ocho veces) |
Estrofas:
No sabes como te deseo *
No sabes como te soado *
Si tu supieras que me muero *
Por tu amor y por tus labios *
Si tu supieras que soy sincero *
Que yo soy derecho y no te fallo *
Si tu supieras lo que te quiero *
Podria darte todo hasta mi ojos *
Pre-Coro:
A
Bm
Pero tu ya tienes otro
A
Bm
Un tipo frio y aburrido
A
G
Un tonto que es un reprimido
A
Eso no te pega a ti
No te va
Coro:
**
Oye mi amor
**
No me digas que no
**
Y vamos juntando las almas
**
Oye mi amor

**
No me digas que no
**
Y vamos juntando los cuerpos
Riff
Conmigo tu alucinarias * Como no!
Conmigo tu hasta el fin del mundo *
Contigo yo me perdera *
Contigo yo quiero todo y nada a medias *
Pre-Coro:
A
Bm
Pero tu ya tienes otro
A
Bm
Un tipo frio y aburrido
A
G
Un tonto que es un reprimido
A
Eso no te pega a ti
No te va

No no no no!

Coro:
**
Oye mi amor
**
No me digas que no
**
Y vamos juntando las almas
**
Oye mi amor
**
No me digas que no
**
Y vamos juntando los cuerpos
Solo de Bajo:
e:---------------------------B:---------7---------10--8---G:------7--------------------D:---9----------------------9A:---------------------------E:---------------------------Coro:
**
Oye mi amor
**
No me digas que no
**

Y vamos juntando las almas


**
Oye mi amor
**
No me digas que no
**
Y vamos juntando los cuerpos
Em
D Em
No sabes como te deseo
D
Em
no sabes como te he soado
D
Em
si tu supieras que me muero
D
Em
por tu amor y por tus labios
D Em
Si tu supieras que soy sincero
D Em
que yo soy derecho y no te fallo
D
Em
si tu supieras lo que te quiero
D
Em
podria darte todo hasta mis ojos
D
Em
Pero tu ya tienes otro
D
Em
un tipo frio y aburrido
D
C
un tonto que es un reprimido
Em C
D
eso no te pega a ti
C
D
no te va.
Em
Oye mi amor
no me digas que no
G
D
Em
y vamos juntando las almas
oye mi amor
no me digas que no
G
Em
y vamos juntando los cuerpos.
Em
Conmigo tu alucinarias
(como no) D
Em
conmigo tu hasta el fin de el mundo
D Em

contigo yo me perderia
D
contigo yo quiero todo
Em
y nada a medias.
D
Em
Pero tu ya tienes otro.....etc,etc.
Esta rola se la quiero dedicar
a todas las chavas que les
gusta hacernos sufrir.
Chords:
A:577655
Bm:xx9777
G:355433
E:022100
intro:
Bm
e-----------14-------14-----------------B--12-12-12----15-15----15--12-12-12-10-7Bm
Sabes como te deseo
sabes como te he soniado
e-9-9-9/10----B-9-9-9/10----G-9-9-9/10-----tu supieras que me muero
e----B-4---4-4-4-7-4
G-4---4-4-4-7-4
D-4---4-4-4-7-4
por tu amor y por tus labios
(intro part)
(The same riff in this verse)
Bm
tu supiera que soy sincero
yo soy derecho y no me rajo
si tu supieras lo que te quiero
podria darte todo, hasta mis ojos
Prechorus:
A
Bm
Pero tu ya tienes otro
A
Bm
Un tipo frio y aburrido
A
G
un tonto que es reprimido
A
eso no te embebe, asi
G
A E

no que va
Chorus:
Bm
Oye mi amor
no me digas que no,
si vamos juntando las almas
Oye mi amor
no me digas que no
si vamos juntando los cuerpos
(intro part)
Bm
contigo yo me perderia
contigo yo me perderia
contigo yo hasta el fin del mundo
contigo yo me perderia
contigo yo quiero todo y nada a medias
Prechorus:
A
Bm
Pero tu ya tienes otro
A
Bm
Un tipo frio y aburrido
A
G
un tonto que es un reprimido
A
eso no te embebe, asi
G
A E
no que va
Chorus:
Bm
Oye mi amor
no me digas que no,
si vamos juntando las almas
Oye mi amor
no me digas que no
si vamos juntando los cuerpos
solos y aplausos
S = sube
B = baja
B S
B
B S B
B S
B
B S
B
E --2---2-----2---------2----2-----2-------0----0------0-------2----2-------2-----------B --3---3-----3---------3----3-----3-------2----2------2-------3----3-------3-----------G --4---4-----4---------4----4-----4-------2----2------2-------4----4-------4-----------D --4---4-----4---------4----4-----4-------2----2------2-------4----4-------4-----------A --2---2-----2---------2----2-----2-------0----0------0-------2----2-------2-----------E --2---2-----2---------2----2------2------0----0------0-------2----2-------2-----------

********** RITMO BASE PARA LA CANCIN *****************


S = sube
B = baja
B
S
B
e --2------2-------0--------------b --3------3-------2--------------g --4------4-------2--------------d --4------4-------2--------------a --2------2-------0--------------e --2------2-------0--------------*************** ARPEGIO *********************
el arpegio va de la siguiente manera:
e -------------2--------------------0------b ---------3------3-------------2-----2---g ------4--------------------2-------------d -------------4--------------------2------a ------------------------0-----------------e ---2--------------------------------------******* RIFF 1 ************************ RIFF 2*********************** RIFF 3 ******
E ----7--7--7--7--8/7-------+---------6--6--6---7--7--------+-------7--6--7--5----B ----7--7--7--7--8/7-------+---------5--5--5---7--7--------+-------7--7--7--6----G ----7--7--7--7--8/7-------+---------6--6--6---7--7--------+---------------------***********************************************************************************
[en esta parte se toca con el ritmo base]
No sabes cmo te deseo [riff 1]
No sabes cmo te he soado [riff 2]
Si t supieras que me muero [riff 1]
Por tu amor por tu amor y por tus labios [riff 3]
[se repite el INTRO y lo que sigue con el ritmo base]
Si t supieras que soy sincero [riff 1]
Que yo soy derecho y no me rajo [riff 2]
Si t supieras lo que te quiero [riff 1]
Podra darte todo hasta mis ojos
EH!
Precoro:
[aqu el ritmo de la mano es en cada pisada en el siguiente orden: Baja-Sube-Baja]
A
Bm
Pero t ya tienes otro
A
Bm
Tipo fro y aburrido

A
G
Un tonto que es un reprimido
A
Eso no te pega a ti
G
A
No te va
[arpegio]
Oye mi amor
No me digas que no
Y vamos juntando las almas
Oye mi amor
No me digas que no
Y vamos juntando los cuerpos
[se repite INTRO]
(sin guitarra)
// Contigo yo me perdera
Contigo yo me perdera
Contigo yo hasta el fin del mundo //
[vuelve el ritmo base]
Contigo yo quiero todo [riff 1]
Y nada a medias
Eh!
Precoro:
[mismo ritmo que el anterior precoro]
A
Bm
Pero tu ya tienes otro
A
Bm
Un tipo fro y aburrido
A
G
Un tonto que es un reprimido
A
Eso no te pega a ti
G
A
No te va
[ vuelve al ritmo base una guitarra y la otra con arpegio]
Oye mi amor
No me digas que no
Y vamos juntando las almas
Oye mi amor
No me digas que no
Y vamos juntando los cuerpos
-Aqu sigue una guitarra con ritmo base y otra a tocar con arpegio -

Ehhh!!!!!
Solo de trompeta
Oh yeh (oh yeh)
Oh yeh (oh yeh)
Oh ye
(oh yeh)
Ye ye ye (ye ye ye)
Oh oh oh (oh oh oh)
Oh oh oh (oh oh oh)
Eh eh eh
(eh eh eh)
Eh eh ehe eh eh eh
Alex: ( 1, 2 , 1-2-3 !!!!)
[aqu cambia el ritmo, y lo que sigue se toca seguido sin cortar el ritmo]
e ----------------------------------------------------b ----5--5--5--4--4--2--2--4--4--0---------------g -----------------------------------------------------

x7

el ltimo queda as:


e -----------------------------------------------------b ----5--5--5--4--4--2--2--2--2-------------------g ------------------------------------------------------Sigue el arpegio
Ya nos vamos Miami !!!
- La guitara deja de tocar Nosotros somos Man, buenas noches....
************** FIN ***************
Transcripcin por:
Vctor Marn
<dark_lord_ve@yahoo.com>
Venezuela
*************************************************************************************
*************************************************************************************
**
**
**Esta cancin es un poco vieja, ya lo s, pero tambin es buena y como no
**
**me gustan las otras versiones que consegu aqu en el ATAME decid transcribir **
**mi propia versin de este clsico. Espero les guste..
**
**
**
**En la parte del coro coloqu la transcripcin de las 2 guitarras: la de fondo **
**y la otra que hace el pequeo punteo. No me preocup mucho por alinear el ritmo **
**entre ellas as que escuchen el cd y guense por las pisadas, no por la ubicacin**
**que tienen una sobre la otra (1era y 2da :p) en las letras
**
*************************************************************************************
*************************************************************************************

Afinacin: Standard
Acordes:
SIm: 799777
LA: 577655
LAm: 577555
SOL: 355433
<Intro:>
SIm, LA,Sim x4
<Verso 1:>
Sim
LA
no sabes como te deseo???
Sim
LA
No sabes como te sonado
Sim
LA
Si tu supieras que me muero
Sim
LA
Por tu amor y por tus labios
<Intro x2>
<Verso 2>
Si tu supieras que soy sincero
Que yo soy derecho y no te fallo
Si tu supieras lo que te quiero
Podria darte todo hasta mi ojos
LA
SIm
Pero tu ya tienes otro
LA
SIm
Un tipo frio y aburrido
LA
Sol
Un tonto que es un reprimido
LA
Eso no te pega a ti
Sol
LA
No te va

<Coro:>
LAm
LA
e--------2--------------0-------- |Segunda
b----3-------3-------2------2---- |
g--2---2---2---2---2---2--2---2-- |

D-------------------------------- |Guitarra
A-------------------------------- |
E-------------------------------- |
Oye mi amor
Sim
Sol
e--------2--------------3-------- |
b----3------3-------3------3----- |Segunda
g--2---2--2---2---0---0--0---0--- |
D-------------------------------- |Guitarra
A-------------------------------- |
E-------------------------------- |
No me digas que no
LAm
LA
Sol
LA
e--------2--------------0---------------3-------------0-------- |
b----3-------3-------2------2-------3-------3------2------2---- |Segunda
g--2---2---2---2---2---2--2---2---0---0---0---0--2---2--2---2-- |
D-------------------------------------------------------------- |Guitarra
A-------------------------------------------------------------- |
E-------------------------------------------------------------- |
Y vamos juntando las almas
LAm
LA
Oye mi amor
Sim
Sol
No me digas que no
Lam
La
Sol
LA
Y vamos juntando los cuerpos

|
|Aqui acompaa la 2da guitarra
|igual que en la parte anterior
|
|
|

<Intro x2>
<Verso 3>
Sin guitarra
Contigo yo me perdera...
Contigo yo me perdera...
Contigo yo hasta el fin del mundo
Sim
LA
Contigo yo me perdera
Sim
LA
Contigo yo quiero todo y nada a medias
Pero tu ya tienes otro
un tipo frio y aburrido
un tonto que es un reprmimido
eso no te queda a ti
no te va
<Coro (= que el anterior)>
<Instrumental con trompeta y la parte donde interactua con el publico es igual que el coro)>

<Luego viene la parte instrumental donde mezclan las guitarras('1..2..1234'), en esta parte
las 2 guitarras hacen los acordes del coro y si ustedes vieron el unplugged como yo se darn
cuenta que en la versin del cd meten una guitarra que nunca son en 'VIVO' :p>
Intro
G Em Bm G D
Bm
A
Siento el calor de toda tu piel en mi cuerpo otra vez
Bm
G
D
A
Estrella fugaz que enciende mi sed misteriosa mujer
G
Bm
Por tu amor sensual cunto me ds?
A Em D
Haz que mi sueo sea una verdad
G
Bm
Dame tu alma hoy, hacia el ritual
A Em F#
Llevame al mundo donde pueda soar
Bm D
A
Bm
Uh, debo saber si es verdad, en algn lado ests
Bm
D A
Bm
Voy a buscar una seal, una cancin
Bm D
A
Bm
Uh, debo saber si es verdad, en algn lado ests
Bm
D
A
G A G Em
Solo el amor que tu me ds me ayudar
Bm
G
Al amanecer tu imagen se va, misteriosa mujer
Bm
G
D
A
Dejaste en m, lujuria total, hermosa, sensual
G
Bm
Corazn sin Dios dame un lugar
A Em D
En ese mundo tibio casi irreal
G
Bm
Te ver buscar una seal
A Em F#
En aquel camino por el que vas.
Uh, debo saber si es verdad, en algn lado ests
Voy a buscar una seal, una cancin
Uh, debo saber si es verdad, en algn lado ests
Solo el amor que tu me ds me ayudar
Solo
G
Bm
Tu presencia marc en mi vida el amor, lo s
A
D
Es dificil pensar, el vivir ya sin vos.
G
Bm

Corazn sin Dios dame un lugar


A Em F#
En ese mundo tibio casi irreal
Uh, debo saber si es verdad, en algn lado ests
Voy a buscar una seal, una cancin
Uh, debo saber si es verdad, en algn lado ests
Solo el amor que tu me ds me ayudar
Notas para el Intro y el Fin
I
J
E
X
X
B
X
X
G
12
9
D
12
9
L
10
7
E
X
X

K
X
X
X
9
9
7

L
X
X
X
12
12
10

M
X
X
11
11
9
X

N
X
X
X
11
11
9

SolM

Mim

Intro:
SolM Mim
KLIMJM
K
Sim
SolM
LaM
Siento el calor de toda tu piel en mi cuerpo otra vez
Sim
SolM
ReM
LaM
Estrella fugaz que enciende mi sed misteriosa mujer
SolM
Sim
Por tu amor sensual cuanto me das?
LaM Mim ReM
Haz que mi sueo sea una verdad
SolM
Sim
Dame tu alma hoy, hacia el ritual
LaM Mim Fa#M
Llvame al mundo donde pueda soar
Sim
ReM
LaM
Sim
Uh, debo saber si es verdad, en algn lado estas
Sim
ReM LaM Sim
Voy a buscar una seal, una cancin
Sim
ReM
LaM
Sim
Uh, debo saber si es verdad, en algn lado estas
Sim
ReM
LaM
Sim
LaM
Solo el amor que tu me das me ayudara aaaaaa....
Sim
SolM
LaM
Al amanecer tu imagen se va, misteriosa mujer
Sim
SolM ReM
LaM
Dejaste en mi, lujuria total, hermosa, sensual
SolM
Sim
Corazn sin Dios dame un lugar
LaM
Mim ReM
En ese mundo tibio casi irreal

SolM
Sim
Te ver buscar una seal
LaM
Mim
Fa#M
En aquel camino por el que vas.
Sim
ReM
LaM
Sim
Uh, debo saber si es verdad, en algn lado estas
Sim
ReM LaM Sim
Voy a buscar una seal, una cancin
Sim
ReM
LaM
Sim
Uh, debo saber si es verdad, en algn lado estas
Sim
ReM
LaM
Sim
LaM
Solo el amor que tu me das me ayudara aaa....
Solo :
( SolM Mim Sim Sim LaM SolM ReM ReM
SolM SolM Sim Sim LaM Mim Fa#M Fa#M )
SolM
Sim
Tu presencia marco en mi vida el amor, lo se
LaM
Mim
ReM
Es difcil pensar, el vivir ya sin vos.
SolM
Sim
Corazn sin Dios dame un lugar
LaM Mim
Fa#M
En ese mundo tibio casi irreal
Sim
ReM
LaM
Sim
Uh, debo saber si es verdad, en algn lado estas
Sim
ReM LaM Sim
Voy a buscar una seal, una cancin
Sim
ReM
LaM
Sim
Uh, debo saber si es verdad, en algn lado estas
Sim
ReM
LaM
Sim
Solo el amor que tu me das me ayudara
Solo: ( Sim ReM LaM Sim ) 6 veces
Fin:

KLMJI

Esta es la versin acstica del tema, esta muy buena, pero hay que escucharla
muy bien para poder sacarla como es. Tiene un par de arreglos porque hay partes
en las que es muy difcil encontrar las notas que se tocan as que hay que escuchar
muy bien el tema para imaginarse como se tocan esos arreglos. Mucha suerte y si
tienen alguna sugerencia para darme mndenla a mi casilla de correo juanlas@hotmail.com
e---------0--0--0--0----0-------4--------------------------------------------------B----------55-55-55-55--5---5-6---6-5-3-6-5-3---5-3------3-2------2----------------G---------------------------------------------6------6-3------3-2----3-2-0-3-2-0-3-D----------------------------------------------------------------------------------A---7------------------------------------------------------------------------------E-5---------------------------------------------------------------------------------

La5
e--0-0-0B--0-0-0G--5-5-5D--5-5-5A--0-0-0E-------e-----0/1\0--------------------------------------------------------B-1-3-------3-1-0--0-1-3-1-0-1\0-----------------------------------G--------------------------------2--0------------------------------D-------------------------------------3-2--2-3-0--3-2-0------------A-------------------------------------------------------3-2-3/5----E---------------------------------------------------------------3--Esta es la parte de los violines intercalada con las partes en las
que se tocan los punteos
e----------------7-8-10-----------------------5-7-8-7-5-----5------B----10-10-10-10--------8-8-8-10-12-10-10---5-----------8-6---8-6-5G-9----------------------------------------------------------------D------------------------------------------------------------------A------------------------------------------------------------------E------------------------------------------------------------------e--------------7-8-10------10----------------3----------------------B--10-10-10-10--------8-8-8--12-10-3-5-6-5--6-5-3-6-5-3-5-3------3--G9---------------------------------------------------------6-5-6---6D-------------------------------------------------------------------A-------------------------------------------------------------------E-------------------------------------------------------------------e12-12-13-12-15-13-12---------------10-10-------12-10-8-----------------B--------------------15-13-12-12-13------13-13--13-12-10--12-13-12------G------------------------------------------------------------------14-12D-----------------------------------------------------------------------A-----------------------------------------------------------------------E-----------------------------------------------------------------------e--12-12-13-12-15-13-12------------------------B------------------------15-13-12-12-10-----10-G---------------------------------------12-----D----------------------------------------------A----------------------------------------------E----------------------------------------------e-----------------B-----------------G------4-5-4-5-5/7- final de la intro
D--5-7------------A-----------------E-----------------Lam
DO
SOL
Siento el calor de toda tu piel en mi cuerpo otra vez
Lam
FA
DO
SOL

Estrella fugaz enciende mi ser, misteriosa mujer


FA
LAm
Con tu amor sensual, cuanto me das
SOL REm DO
Haz que mi sueo sea una verdad
FA
LAm
Dame tu alma hoy, haz el ritual
SOL
REm MI
Llvame al mundo donde pueda soar
Lam DO
SOL
LAm
Uuuhh Debo saber si es verdad que en algn lado estas
Lam DO
SOL
Mim
LAm
Voy a buscar una seaaaa-aaal, una cancin
Lam DO
SOL
LAm
Uuuhh Debo saber si en verdad en algn lado estas
Lam
DO
SOL
Mim
LAm) Sol
Solo el amor que tu me daaaaaaaaa-aaaaas me ayudaraaa
-aaa
e----------------7-8-10--------------------------------------B----10-10-10-10--------8-8-8-10-12-10-10----------7----7-9--G-9-----------------------------------------7-9-10---10-----7D------------------------------------------------------------A------------------------------------------------------------E------------------------------------------------------------e---------------7-8-10-----10-----------------------10-10/12----B---10-10-10-10-------8-8-8--12-10---12-13-10-12-13---------10b-G-9-------------------------------------------------------------D---------------------------------------------------------------A---------------------------------------------------------------E---------------------------------------------------------------e-12-12-13-12-15-13-12---------------10-10-------------------------------B---------------------15-13-12-12-13-------13-13-------------------------G-------------------------------------------------10-10/12-9-------------D------------------------------------------------------------10-10/12-10-A------------------------------------------------------------------------E------------------------------------------------------------------------e--12-12-13-12-15-13-12------------------------B-----------------------15-13-12-12-10-----10--G---------------------------------------12-----D----------------------------------------------A----------------------------------------------E----------------------------------------------e-----------------B-----------------G------4-5-4-5-5/7D--5-7------------A-----------------E-----------------Al amanecer tu imagen se va, misteriosa mujer
Dejaste en mi lujuria total, hermosa y sensual

Corazn sin dios, dame un lugar


En ese mundo tibio, casi irreal
Deber buscar una seal
En aquel camino por el que vas
Debo saber si en verdad en algn lado estas
Voy a buscar una seal, una cancin
Debo saber si en verdad en algn lado estas
Solo el amor que tu me das me ayudara
e---5-7-8-8p7----7--------------------------------------B-5-----------10----------------------------------------G------------------6-8-6-----------------------7---7-9--D------------------------9-7-7/9--------7-9-10---10---7bA--------------------------------------7----------------E---------------------------------5-7-8-----------------lo que sigue es el solo de guitarra,es medio jodido porque es muy rpido,
pero con prctica se puede sacar bien.
e--------------------------------------------------B--------------------------------------------------G---4-5-7-5-4-5-7-5-4-5-7-5-4----------------------D-7---------------------------7-5---7-7-5----------A-----------------------------------------8-7------E---------------------------------------------8-7-5Ac se hacen dos golpes en la caja de la guitarra para simular
los golpes de percusin.
e-10-12-13-17------------10-12-13-10-12-13-12h13p12-10-12-10---------B-10-------17---10-12-13-------------------------------------13-12-13G-10-------17--------------------------------------------------------D--------------------------------------------------------------------A--------------------------------------------------------------------E--------------------------------------------------------------------e-10------------------10-8h10p8-7-10-8h10p8-7-10-7-8-10-7-8-10-7-8-10B----13-12/13\12--12-------------------------------------------------G---------------14--14-----------------------------------------------D--------------------------------------------------------------------A--------------------------------------------------------------------E--------------------------------------------------------------------e-12-8-10-12-12/15-15-15-15-----------------------------------B--------------------------12-10-12-9-10-12-10-9--------------G-------------------------------------------------------------D-------------------------------------------------------------A---------------------------------------------------8-10-10/12E------------------------------------------------12-----------FA
Rem
Lam
Tu presencia marc en mi vida el amor, lo s
SOL
Rem
DO
Es difcil pensar en vivir ya sin vos
FA
Lam
Corazn sin dios, dame un lugar

FA
Rem
MI
En ese mundo tibio, casi irreal
Debo saber si en verdad en algn lado estas
Voy a buscar una seal, una cancin
Debo saber si en verdad en algn lado estas
Solo el amor que tu me das me ayudara
e---------------7-8-10------------------------------------------B---10-10-10-10-------8-8-8-10-12-10-10-------------------------G-9-----------------------------------------------0-------------D---------------------------------------------0-2---3-2-0-2-3-2-A---------------------------------------0-2-3-------------------E---------------------------------------------------------------e---------------7-8-10-----10------B---10-10-10-10-------8-8-8--12-10--<<<< Ac la nota sigue sonando un poco hasta que
G-9--------------------------------- empieza la parte siguiente en violn, ac
D----------------------------------- no hay un nter de guitarra.
A----------------------------------E----------------------------------e-12-12-13-12-15-13-12---------------10-10----------5-7-8-7-5-----5------B----------------------15-13-12-12-13-----13-13----5----------8-6---8-6-5G------------------------------------------------------------------------D------------------------------------------------------------------------A------------------------------------------------------------------------E------------------------------------------------------------------------e--12-12-13-12-15-13-12---------------------B-----------------------15-13-12-12-10----10G--------------------------------------12---D-------------------------------------------A-------------------------------------------E-------------------------------------------Lam, Sol, Mim, Fa, Rem, un rasguido en Lam y el siguiente punteo.
e--------0-5-7-8-5/6\5------------0B----0-1--------------8-6-5-8-6-5-1G-2-------------------------------2D---------------------------------2A---------------------------------0E---------------------------------0Lam
Y aqu termina el tema, mucha suerte y chau
INTRO: Lam-SOL-Lam-SOL-Lam-DO-SOL-Lam-DO-SOL-FA-Rem-Lam
Lam
SOL
Siento el calor de toda tu piel en mi cuerpo otra vez
Lam
DO
SOL
Estrella fugaz enciende mi ser, misteriosa mujer
FA
LAm
Con tu amor sensual, cuanto me das

SOL REm DO
Haz que mi sueo sea una verdad
FA
LAm
Dame tu alma hoy, haz el ritual
SOL
REm MI
Llvame al mundo donde pueda soar
Lam DO
SOL
LAm
Uuuhh Debo saber si es verdad que en algn lado estas
DO
SOL
LAm
Voy a buscar una seal, una cancin
Lam DO
SOL
LAm
Uuuhh Debo saber si en verdad en algn lado estas
DO
SOL
LAm SOL-DO-FA-MI (o el simple Lam-SOL-Lam)
Solo el amor que tu me das me ayudaraaa-aaa-aaa
LAm
DO
SOL
Al amanecer tu imagen se va, misteriosa mujer
LAm
FA DO
SOL
Dejaste en mi lujuria total, hermosa y sensual
Corazn sin dios, dame un lugar
En ese mundo tibio, casi irreal
Deber buscar una seal
En aquel camino por el que vas
Debo saber si en verdad en algn lado estas
Voy a buscar una seal, una cancin
Debo saber si en verdad en algn lado estas
Solo el amor que tu me das me ayudara
FA
REm
LAm
Tu presencia marc en mi vida el amor, lo s
SOL
REm
DO
Es difcil pensar en vivir ya sin vos
Corazn sin dios, dame un lugar
En ese mundo tibio, casi irreal
Debo saber si en verdad en algn lado estas
Voy a buscar una seal, una cancin
Debo saber si en verdad en algn lado estas
Solo el amor que tu me das me ayudara
Cierre lento con arpegios en Lam-DO-SOL-FA-Rem y un
rasgueo corto en Lam
VERSION ACUSTICA
Empieza tocando un acorde en LAm, hace unos
arpegios sobre el mismo y luego va el punteo:
e------------------------------------------------B-5-6-8-6-5---6-5-----5--------------------------G-----------7-----7-5---7-5---7-5----------------D---------------------------9-----9-7-6-9--------A-----------------------------------------7-(7)-7E-------------------------------------------------

e-------------------------------------------------------------------------------B-------------------------------------------------------------------------------G-------9-10-9------------------------------------------------------------------D-10-12--------12-10-9-----9-10-12-10-9-10-9-7-----5-----------5----------------A----------------------------------------------------8-7---7-8---8-7-5---3-2-5--E------------------------------------------------------------------------------3Entra el violn con acompaamiento de LAm SOL LAm, haciendo:


e-------------------------------------------------- \
B---10--10-10-10--12-13-15--8-8-8--13-12-12-10----G-9------------------------------------------------ Violn
D-------------------------------------------------A-------------------------------------------------E-------------------------------------------------- /
e------7-8-7----------4-----4----- \
B-9-10-------10-9-6-5---6-5---6-5G--------------------------------- Guitarra
D--------------------------------A--------------------------------E--------------------------------- /
e-------------------------------------------------- \
B---10--10-10-10--12-13-15--8-8-8--13-12-10-------G-9------------------------------------------------ Violn
D-------------------------------------------------A-------------------------------------------------E-------------------------------------------------- /
e-------------------------------------------------- \
B-------------------------------------------------G-------9-10-9-------9-------9--------------------- Guitarra
D-10-12--------12-10---12-10---12-10-9-10-12-10---A-------------------------------------------------E-------------------------------------------------- /
e-12-12-13-12--15-13-12-12-------------------------- \
B---------------------------15-13-12-13-15-15-13---G--------------------------------------------------- Violn
D--------------------------------------------------A--------------------------------------------------E--------------------------------------------------- /
e-12-10--8--8-7-5-0-- \
B-13-12-10----------G-------------------- Guitarra
D-------------------A-------------------E-------------------- /
e-12-12-13-12--15-13-12-12-------------------------- \
B---------------------------15-13-12-10-9-10-------G--------------------------------------------------- Violn
D---------------------------------------------------

A--------------------------------------------------E--------------------------------------------------- /
e--------------B--------------G----------7-9-D-7-9-10-9-----A--------------E--------------Lam
Fa
Sol
Siento el calor de toda tu piel en mi cuerpo otra vez
Lam
Fa
Do
Sol
Estrella fugaz que enciende mi ser misteriosa mujer
Fa
Lam
Con tu amor sensual cuanto me das?
Sol Rem Do
Haz que mi sueo sea una verdad
Fa
Lam
Dame tu alma hoy, hacia el ritual
Sol Rem Sol
Llvame al mundo donde pueda soar
Lam Do
Sol
Lam
Uh, debo saber si en verdad, en algn lado estas
Do
Sol
Lam riff1
Voy a buscar una seal, una cancin
riff 1
e----------B----------G----------D----------A-0-2-3-2-0E----------Lam Do
Sol
Lam
Uh, debo saber si en verdad, en algn lado estas
Do
Sol
Lam Fa
Solo el amor que tu me das me ayudara aaaaaa....
e-------------------------------------------------- \
B---10--10-10-10--12-13-15--8-8-8--13-12-12-10----G-9------------------------------------------------ Violn
D-------------------------------------------------A-------------------------------------------------E-------------------------------------------------- /
e----------------- \
B----------------G--------7----7-9- Guitarra
D-7-9-10---10----A----------------E----------------- /

e-------------------------------------------------- \
B---10--10-10-10--12-13-15--8-8-8--13-12-10-------G-9------------------------------------------------ Violn
D-------------------------------------------------A-------------------------------------------------E-------------------------------------------------- /
e----------10----10/12----- \
B-12-13-12----13-------10-G-------------------------- Guitarra
D-------------------------A-------------------------E-------------------------- /
e-12-12-13-12--15-13-12-12-------------------------- \
B---------------------------15-13-12-13-15-15-13---G--------------------------------------------------- Violn
D--------------------------------------------------A--------------------------------------------------E--------------------------------------------------- /
e----------------------- \
B----------------------G-9-9(10)-9----5-5(7)-5- Guitarra
D----------------------A----------------------E----------------------- /
e-12-12-13-12--15-13-12-12-------------------------- \
B---------------------------15-13-12-10-9-10-------G--------------------------------------------------- Violn
D--------------------------------------------------A--------------------------------------------------E--------------------------------------------------- /
Lam
Fa
Sol
Al amanecer tu imagen se va, misteriosa mujer
Lam
Fa
Do
Sol
Dejaste en mi, lujuria total, hermosa y sensual
Fa
Lam
Corazn sin Dios dame un lugar
Sol Rem Lam
En ese mundo tibio casi irreal
Fa
Lam
Deber buscar una seal
Sol Rem
Sol
En aquel camino por el que vas.
Lam Do
Sol
Lam
Uh, debo saber si en verdad, en algn lado estas
Do Sol
Lam riff 1
Voy a buscar una seal, una cancin
Do
Sol
Lam
Uh, debo saber si en verdad, en algn lado estas

Do
Sol
Lam
Solo el amor que tu me das me ayudara.
Solo de guitarra
e--------------------------|B---10-12-13---13-12-10-12-|G-9------------------------|D--------------------------|A--------------------------|E--------------------------|Rem
Lam
Tu presencia marco en mi vida el amor, lo se
Fa
Lam
Es difcil pensar, el vivir ya sin vos.
Fa
Lam
Corazn sin Dios dame un lugar
Sol Rem Fa Sol
En ese mundo tibio casi irreal
Lam Do
Sol
Lam
Uh, debo saber si en verdad, en algn lado estas
Do
Sol
Lam
Voy a buscar una seal, una cancin
Do
Sol
Lam
Uh, debo saber si en verdad, en algn lado estas
Do
Sol
Lam
Solo el amor que tu me das me ayudara.
Intro
Asegurensen de tener la guitarra bien afinada por que sino
sino les va a salir horrible.
Cuaquiar Cosa, tk_trova@hotmail.com.
bueh demasiada charla, aca va
e:------------------------------------|
B:--10/12---12-12--10-----------------|
G:--------------------12p11h12p11--9--|
D:------------------------------------|
A:------------------------------------|
E:------------------------------------|
e:--12b(14)--12--10h12p10-9h10bp9-----|
B:--------------------------------12--|
G:------------------------------------|
D:------------------------------------|
A:------------------------------------|
E:------------------------------------|
e:--9--10--9h10p9-----12/14-15--14/--12--10h12p10-9--10/12--10--|
B:----------------12--------------------------------------------|
G:--------------------------------------------------------------|
D:--------------------------------------------------------------|

A:--------------------------------------------------------------|
E:--------------------------------------------------------------|
e:--9h10p9-------------------------------------|
B:---------12-10-------------------------------|
G:---------------12-11-9-11h12-12~~~--11p9-11--|
D:---------------------------------------------|
A:---------------------------------------------|
E:---------------------------------------------|
e:-----------14-15-17-17/19--------17/19-17-17/19--------|
B:--14-15-17----------------15-15-----------------15-15--|
G:-------------------------------------------------------|
D:-------------------------------------------------------|
A:-------------------------------------------------------|
E:-------------------------------------------------------|
e:--19-19-21-19-21-21b(22)-21-19-14~~~--|
B:--------------------------------------|
G:--------------------------------------|
D:--------------------------------------|
A:--------------------------------------|
E:--------------------------------------|
e:--14-15-15/17-17-15-14-12~~~---15-14-12-15/19-18--|
B:--------------------------------------------------|
G:--------------------------------------------------|
D:--------------------------------------------------|
A:--------------------------------------------------|
E:--------------------------------------------------|
e:--19-18-19-18-19b(21)-19b(21)-19b(21)-19b(21)-19b(21)-19~~~--|
B:-------------------------------------------------------------|
G:-------------------------------------------------------------|
D:-------------------------------------------------------------|
A:-------------------------------------------------------------|
E:-------------------------------------------------------------|
Referencias:
/
: Slide (deslizar de una nota a la otra).
~~~~ : Vibrato Exagerado (se hace con la palanca de la guitarra elctrica).
19b(21) : Indica que hay que hacer un Bend (estiramiento de la cuerda y llegar
a la nota indicada (en este caso, se estira el espacio 19 y se hace
que suene como un 21).
h
: Hammer On (se golpea el espacio indicado despus de la 'h' sin volver
a tocar la cuerda).
p
: Pull Off (se suelta la cuerda y se hace sonar la nota posterior a la
'p' sin volver a tocar la cuerda).
14/ 12 : Slide Retardado (o sea, tens que tocar la nota, dejarla sonar y luego
hacer el Slide, y no hacerlo enseguida).
esta cancin es de ritmo Taquirari. aqui les va
Int. :

Rem Re7 Solm LaM Rem Re7 Solm


DoM FaM Rem Solm SibM LaM Rem Re7
DoM FaM Rem Solm LaM Rem
Rem
Veeess, llegamos al final, al final de este amor
Rem
que yo quise cuidar
Solm Solm+7 Solm7 Solm6/Mi
toda una vida enteraaaaa
DoM
Todo, todo cuanto se dio, por salvar este amor
FaM
La7
de lo poco que queda, ah, ah
Rem
Rem Rem+7 Rem7 Rem
La7
El amor que al final,
logrars olvidar
Solm La7
Rem
en cambio yo jamaaas, solo cuando yo muera
Rem Rem+7 Rem7 Rem
La7
el amor que al final,
logrars olvidar
Solm La7
Rem
en cambio yo jamaaas, solo cuando yo muera
(se repite desde el principio)
Rem Rem Rem Rem
El intentar, el regresar
Rem SibM
La7
son los labios que no he de besar
SibM
LaM
ser volver a remover
La7
Rem
las cenizas del fuego del ayer.(bis)
Dm
No se acaba el mundo
Gm
cuando un amor se va
Bb
no se acaba el mundo
A7
y no se derrumbara
Dm
Si fue verdadero
Gm
tras sus huellas volveran
C
si no fue sincero
Bb
A7
otro lo reemplazara
No se acaba el mundo...etc
Dm
No hay lluvia en el alma
Gm

que no acabe con un sol


C
ni se limpia el cielo
Bb
A7
Dm
cuando deja de llover... de llover
Y es el corazon
C
F
como un ave de cristal
Bb
Gm
que es tan fragil de romper
Bb
A7 Dm
tan dificil de entender
Y es el corazon
C
F
como el destino tan cruel
Bb
Gm
tan dificil de torcer
Bb
A7
y tan facil de perder
Dm C
Dm
es el amor...es el amor
Se repite toda la cancion.

Do

Fa

Sol

Fa

Do

Sol

Do

--0-1-3-1-0---0------|---1-1-1-|--------------------|---------|---------|--------3-1-|-0-0-----|
------------3---1----|-1-------|--3-3-1-0-0---------|---------|---------|-3--3-3-----|-----3-1-|
o-------------------o|---------|o-----------2---0--o|---2-2-2-|---0-0-0-|------------|---------|
o-------------------o|---------|o------------------o|-3-------|-2-------|------------|---------|
---------------------|---------|--------------------|---------|---------|------------|---------|
---------------------|---------|--------------------|---------|---------|------------|---------|
Do
Porque me paso cantando
FA
me llaman jilguero flores, palomitay
SOL
El dulce de las mujeres
Ms peligrosos que el diablo
FA
Do
En el amor, en el amor
SOL
DO
Si tienes dueo lo has de cuidar.
Do
Me has dicho que soy muy feo
FA
Y que no soy para vos, palomitay
SOL

Que muchos te andan rondando


Y muchos te han de querer
FA
Do
Palomitay, palomitay
SOL
DO
No seas sonsa me has de querer
Do
Pretender muchos amores
FA
Y jugar con el amor, palomitay
SOL
Es una cosa muy fea
Pregntale a quien tu quieras
FA
Do
Suele doler, suele doler
SOL
DO
No seas sonsa no has de creer.
Do
Si vienes hurgando tanto
FA
El viejo tronco de un rbol, palomitay
SOL
La mano al avispero, la mano al avispero
FA
Do
Puedes meter, puedes picar
SOL
DO
no juegues nunca con el amor
Ante cualquier duda manden un e-mail
percycris@uole.com
RITMO ORIGINAL : Saya Boliviana
TONO ORIGINAL : Rem
Intro : digitar Re9 y Re4
Acompaar la Zampoa con la meloda de la msica
Rem Sib Do7 Fa La7 (2x)
Solm Sib Do Rem
(2x)
Rem
Sib
Llorando se fu

! (2x)
D7
Fa La7 !
y me dej solo sin su amor

!
!

Solm
Sib
!
Sola estar recordando este amor !
! (2x)
Do
Rem
!
que el tiempo no puede borrar(Bis) !

Rem
Sib
La recuerdo hoy

!
!

! (2x)
Do7
Fa La7 !
y en mi pecho no existe el rencor
Solm
Sib
!
Llorando estar recordando el amor
! (2x)
Do
Rem
!
que un dia no supo cuidar
!

!
!

Acomp. a la Zampoa
Rem Fa (2x)
Solm Sib Do Rem
(2x)
Ritmo: Saya
Tono: Mi menor
|----|--7-5-3-2-0--0-3-2-0---0-----|------|--5-5-5-3------0-7-5-3------3-2-0--0----|------|
|Mim-|---------------------3---0---|-SOL--|----------1--1---------1--1-------3---3-|-Mim--|
|-x2-|o--------------------------2-|-x2--o|-o--------------------------------------|-x2--o|
|----|o----------------------------|-----o|-o--------------------------------------|-----o|
|----|-----------------------------|------|----------------------------------------|------|

Sol
Min
|----0-0-0---0-0-0-|---3-3-3----3-3-3--|
|--0-------0-------|-3--------3--------|
|o-----------------|------------------o|
|o-----------------|------------------o|
|------------------|-------------------|
MIm
Llorando se fue
DO
RE
SOL
Y me dejo solo sin su amor
MIm
llorando se fue
DO
RE
SOL
Y me dejo solo sin su amor.
Estribillo:
LAm
DO
Solo estara
LAm
DO
recordando este amor
que el tiempo

RE
MIm
no puede borrar. X2
MIm
La recuerdo hoy
DO
RE
SOL
y en mi pecho no existe el rencor.
MIm
la recuerdo hoy
DO
RE
SOL
y en mi pecho no existe el rencor.
LAm
DO
Solo estara
LAm
DO
recordando este amor
que el tiempo
RE
MIm
no puede borrar. X2
Ante cualquier duda manden un e-mail
percycris@uole.com
Transcripcin de Sejas cristian Percy
Saya Sensual
Ritmo: Saya
ReM
Si supieras
Fa#m
cuanto te he esperado
SolM
cuanto te amado
ReM, LaM-LaM
cuanto te soe.
Sim
Cuantas noches
Fa#m
de pasin perdida
SolM
te soe vencida
LaM
te hice mujer
LaM
cuanto te amo
Sim
Y he sufrido
Fa#m
todo mi fracaso
SolM
cuando en otros brazos

LaM
te vi sonreir
ReM
Fa#m
Yo quiero ser tu amor
ReM
Fa#m-SolM-Fa#m-Mim
quiero ser mas que amigo
SolM-Mim
que por ningun motivo
LaM
ReM-LaM-LaM
me dejes de amar.
El coro se repite despues de la segunda estrofa.
El acompaamiento de la kena es ReM-LaM-SolM-LaM-ReM...