Está en la página 1de 4

REFERENCIA DE GUITARRA POR ACORDES

REFERENCIA DE GUITARRA POR ACORDES


"AUN PASO DE SER TODO UN GUITARRISTA"

Acá encontraras algunos acordes con estos tocaras todos los temas que te propongas, no te desesperes, estoy seguro que
en un día te puedes aprender los mayores, en otro día los menores y en otro las séptimas.
Las bolitas indican donde debes poner los dedos, los números (1, 2, 3, 4, 5,6) son las cuerdas (no olvides que 1 es la
primera cuerda, 2 la segunda, etc.)y los números romanos significa en que traste(el traste es el espacio que hay entre dos
“fierritos” que están en el mástil de tu guitarra), como puedes ver hay muchos, por lo tanto hay varios trastes, todos estos
acordes están hechos con los primeros trastes así que no va ver mucha dificultad para aprenderlos, practícalos.

DOM=DO MAYOR REM MIM FAM


--VI...III...II...I --VI...III...II...I --VI...III...II...I ..VI..III...II...I
|----|----|----|----|---6 |----|----|----|----|--6 |----|----|----|----|--6 |----|----|----|-0--|--6
|----|--0-|----|----|---5 |----|----|----|----|--5 |----|----|-0--|----|--5 |----|-0--|----|-0--|--5
|----|----|--0-|----|---4 |----|----|----|----|--4 |----|----|-0--|----|--4 |----|-0--|----|-0--|--4
|----|----|----|----|---3 |----|----|--0-|----|--3 |----|----|----|-0--|--3 |----|----|-0--|-0--|--3
|----|----|----|--0-|---2 |----|--0-|----|----|--2 |----|----|----|----|--2 |----|----|----|-0--|--2
|----|----|----|----|---1 |----|----|--0-|----|--1 |----|----|----|----|--1 |----|----|----|-0--|--1

Nota: En el FAM a si como en otras notas se usan puentes, que los tienes que hacer con el dedo índice (en el FAM por
ejemplo, en el traste I, el índice está representado por esa fila de círculos tienes que presionar todas las cuerdas con ese
dedo, y las otras con los dedos restantes)

SOLM LAM SIM


..VI..III...II...I ..VI..III...II...I ..VI..III...II...I
|----|-0--|----|----|--6 |----|----|----|----|--6 |----|----|--0-|----|--6
|----|----|-0--|----|--5 |----|----|----|----|--5 |----|----|--0-|----|--5
|----|----|----|----|--4 |----|----|-0--|----|--4 |-0--|----|--0-|----|--4
|----|----|----|----|--3 |----|----|-0--|----|--3 |-0--|----|--0-|----|--3
|----|----|----|----|--2 |----|----|-0--|----|--2 |-0--|----|--0-|----|--2
|----|-0--|----|----|--1 |----|----|----|----|--1 |----|----|--0-|----|--1

Ahora vamos con los acordes menores:

dom=do menor ..IIV..IV...V....VI..III...II...I


..IIV..IV...V....VI..III...II...I |----|----|----|----|----|----|-0--|--6
|----|----|----|----|-0--|----|----|--6 |----|----|----|----|-0--|----|-0--|--5
|----|----|----|----|-0--|----|----|--5 |----|----|----|----|-0--|----|-0--|--4
|----|----|-0--|----|-0--|----|----|--4 |----|----|----|----|----|----|-0--|--3
|----|----|-0--|----|-0--|----|----|--3 |----|----|----|----|----|----|-0--|--2
|----|----|----|-0--|-0--|----|----|--2 |----|----|----|----|----|----|-0--|--1
|----|----|----|----|-0--|----|----|--1
solm
rem ..IIV..IV...V....VI..III...II...I
..IIV..IV...V....VI..III...II...I |----|----|----|----|-0--|----|----|--6
|----|----|----|----|----|----|----|--6 |----|----|-0--|----|-0--|----|----|--5
|----|----|----|----|----|----|----|--5 |----|----|-0--|----|-0--|----|----|--4
|----|----|----|----|----|----|----|--4 |----|----|----|----|-0--|----|----|--3
|----|----|----|----|----|--0-|----|--3 |----|----|----|----|-0--|----|----|--2
|----|----|----|----|--0-|----|----|--2 |----|----|----|----|-0--|----|----|--1
|----|----|----|----|----|----|--0-|--1
lam
mim ..IIV..IV...V....VI..III...II...I
..IIV..IV...V....VI..III...II...I |----|----|----|----|----|----|----|--6
|----|----|----|----|----|----|----|--6 |----|----|----|----|----|----|----|--5
|----|----|----|----|----|-0--|----|--5 |----|----|----|----|----|--0-|----|--4
|----|----|----|----|----|-0--|----|--4 |----|----|----|----|----|--0-|----|--3
|----|----|----|----|----|----|----|--3 |----|----|----|----|----|----|--0-|--2
|----|----|----|----|----|----|----|--2 |----|----|----|----|----|----|----|--1
|----|----|----|----|----|----|----|--1
sim
..IIV..IV...V....VI..III...II...I
|----|----|----|----|----|-0--|----|--6
|----|----|----|----|----|-0--|----|--5
|----|----|----|-0--|----|-0--|----|--4
|----|----|----|-0--|----|-0--|----|--3
|----|----|----|----|-0--|-0--|----|--2
|----|----|----|----|----|-0--|----|--1

fam

Ahora las séptimas mayores

DOM7=DO MAYOR |----|----|----|----|----|----|-0--|--2


..IIV..IV...V....VI..III...II...I |----|----|----|----|----|----|----|--1
|----|----|----|----|----|----|----|--6
|----|----|----|----|-0--|----|----|--5 REM7
|----|----|----|----|----|-0--|----|--4 ..IIV..IV...V....VI..III...II...I
|----|----|----|----|-0--|----|----|--3

Por Jorge Arturo Ortega Miranda 4


REFERENCIA DE GUITARRA POR ACORDES

|----|----|----|----|----|----|----|--6
|----|----|----|----|----|----|----|--5
|----|----|----|----|----|----|----|--4
|----|----|----|----|----|-0--|----|--3
|----|----|----|----|----|----|-0--|--2 SOLM7
|----|----|----|----|----|-0--|----|--1 ..IIV..IV...V....VI..III...II...I
|----|----|----|----|-0--|----|----|--6
MIM7 |----|----|----|----|----|-0--|----|--5
..IIV..IV...V....VI..III...II...I |----|----|----|----|----|----|----|--4
|----|----|----|----|----|----|----|--6 |----|----|----|----|----|----|----|--3
|----|----|----|----|----|-0--|----|--5 |----|----|----|----|----|----|----|--2
|----|----|----|----|----|----|----|--4 |----|----|----|----|----|----|-0--|--1
|----|----|----|----|----|----|-0--|--3
|----|----|----|----|-0--|----|----|--2 LAM7
|----|----|----|----|----|----|----|--1 ..IIV..IV...V....VI..III...II...I
|----|----|----|----|----|----|----|--6
FAM7 |----|----|----|----|----|----|----|--5
..IIV..IV...V....VI..III...II...I |----|----|----|----|----|-0--|----|--4
|----|----|----|----|----|----|-0--|--6 |----|----|----|----|----|----|----|--3
|----|----|----|----|-0--|----|-0--|--5 |----|----|----|----|----|-0--|----|--2
|----|----|----|----|----|----|-0--|--4 |----|----|----|----|----|----|----|--1
|----|----|----|----|----|-0--|-0--|--3
|----|----|----|-0--|----|----|----|--2 SIM7
|----|----|----|----|----|----|-0--|--1 ..IIV..IV...V....VI..III...II...I
|----|----|----|----|----|----|----|--6
|----|----|----|----|----|-0--|----|--5
|----|----|----|----|----|----|-0--|--4
|----|----|----|----|----|-0--|----|--3
|----|----|----|----|----|----|----|--2
|----|----|----|----|----|-0--|----|--1

Ahora las séptimas menores

rem7
dom7=do menor séptima ..IIV..IV...V....VI..III...II...I
..IIV..IV...V....VI..III...II...I |----|----|----|----|----|----|----|--6
|----|----|----|----|----|----|----|--6 |----|----|----|----|----|----|----|--5
|----|----|----|----|-0--|----|-0--|--5 |----|----|----|----|----|----|----|--4
|----|----|----|----|----|----|-0--|--4 |----|----|----|----|----|-0--|----|--3
|----|----|----|----|-0--|----|-0--|--3 |----|----|----|----|----|----|-0--|--2
|----|----|----|----|----|----|-0--|--2 |----|----|----|----|----|----|-0--|--1
|----|----|----|----|-0--|----|-0--|--1
solm7
mim7 ..IIV..IV...V....VI..III...II...I
..IIV..IV...V....VI..III...II...I |----|----|----|----|-0--|----|----|--6
|----|----|----|----|-0--|----|----|--6 |----|----|-0--|----|-0--|----|----|--5
|----|----|----|----|----|-0--|----|--5 |----|----|-0--|----|-0--|----|----|--4
|----|----|----|----|----|-0--|----|--4 |----|----|----|----|-0--|----|----|--3
|----|----|----|----|----|----|----|--3 |----|-0--|----|----|-0--|----|----|--2
|----|----|----|----|-0--|----|----|--2 |----|----|----|----|-0--|----|----|--1
|----|----|----|----|----|----|----|--1
fam7 lam7
..IIV..IV...V....VI..III...II...I ..IIV..IV...V....VI..III...II...I
|----|----|----|----|----|----|-0--|--6 |----|----|----|----|----|----|----|--6
|----|----|----|----|-0--|----|-0--|--5 |----|----|----|----|----|----|----|--5
|----|----|----|----|-0--|----|-0--|--4 |----|----|----|----|----|-0--|----|--4
|----|----|----|----|----|----|-0--|--3 |----|----|----|----|----|-0--|----|--3
|----|----|----|-0--|----|----|-0--|--2 |----|----|----|----|----|----|-0--|--2
|----|----|----|----|----|----|-0--|--1 |----|----|----|----|-0--|----|----|--1

sim7
..IIV..IV...V....VI..III...II...I
|----|----|----|----|----|----|----|--6
|----|----|----|----|----|-0--|----|--5
|----|----|----|----|----|----|----|--4
|----|----|----|----|----|-0--|----|--3
|----|----|----|----|----|----|----|--2
|----|----|----|----|----|-0--|----|--1

Bueno ahora tienes que prestar mucha atención a lo que te voy a explicar, cuando te pongan por ahí en alguna canción
REM# esto significa RE MAYOR sostenida que quiere decir que el REM normal (el que está arriba) tienes que tocarla corriendo un
traste hacia el cajón de la guitarra, en el ejemplo REM es así:

REM ahora un REM# sería:


..IIV..IV...V....VI..III...II...I
|----|----|----|----|----|----|----|--6
|----|----|----|----|----|----|----|--5 REM#
|----|----|----|----|----|----|----|--4 ..IIV..IV...V....VI..III...II...I
|----|----|----|----|----|-0--|----|--3 |----|----|----|----|----|----|-0--|--6
|----|----|----|----|-0--|----|----|--2 |----|----|----|----|----|----|-0--|--5
|----|----|----|----|----|-0--|----|--1 |----|----|----|----|----|----|-0--|--4
|----|----|----|----|-0--|----|-0--|--3
|----|----|----|-0--|----|----|-0--|--2
|----|----|----|----|-0--|----|-0--|--1

Ves como pongo un puente en el primer traste para que la nota RE se vaya hacia el cajón de tu guitarra y a si se
transforma en RE#. Ahora si encuentras por ejemplo un Reb, esto significa RE bemol que es todo lo contrario o sea que no corres
un traste hacia el cajón de tu guitarra, sino hacia los clavijeros (o maquinaria), por ejemplo:

Por Jorge Arturo Ortega Miranda 4


REFERENCIA DE GUITARRA POR ACORDES

|----|----|----|----|-0--|----|----|--1

Ahora el domb sería:

domb=do menor bemol

dom=do menor ..IIV..IV...V....VI..III...II...I


|----|----|----|----|----|-0--|----|--6
|----|----|----|----|----|-0--|----|--5
..IIV..IV...V....VI..III...II...I
|----|----|----|-0--|----|-0--|----|--4
|----|----|----|----|-0--|----|----|--6
|----|----|----|-0--|----|-0--|----|--3
|----|----|----|----|-0--|----|----|--5
|----|----|----|----|-0--|-0--|----|--2
|----|----|-0--|----|-0--|----|----|--4
|----|----|----|----|----|-0--|----|--1
|----|----|-0--|----|-0--|----|----|--3
|----|----|----|-0--|-0--|----|----|--2

Por Jorge Arturo Ortega Miranda 4


REFERENCIA DE GUITARRA POR ACORDES

Si te das cuenta esto seria un sim o sea que el domb = sim


Y otra cosa que debes saber es que todas las notas tienen sostenida (#) excepto las notas "MI y SI" ya
sean mayores o menores o séptimas.

DO--DO# -RE- RE#- MI--FA--FA#--SOL--SOL#--LA--LA#--SI--DO


La primera cuerda al aire (sin tocar ningún traste) es MI
La segunda cuerda al aire es SI
La tercera cuerda al aire es SOL
La cuarta cuerda al aire es RE
La quinta cuerda al aire es LA
La sexta cuerda al aire es MI

Hay otra nomenclatura para las notas que no se te va a ser difícil prenderlas, le ponen una sola letra a las
notas por ejemplo:

A = LA
B = SI
C = DO
D = RE
E = MI
F = FA
G = SOL

O sea, si tienes G# sería un SOLM#. Un Cm# sería un dom#.

Para facilitar el estudio del mástil (a que nota corresponde cada traste) incluyo aquí una representación
del mástil con la notación correspondiente a cada nota/traste.

IIX..IX...X....XI..VIII..VII..VI...V....VI...III..II...I
E--|-D#-|-D--|-C#-|-C--|-B--|-A#-|-A--|-G#-|-G--|-F#-|-F--|-E(1)
A--|-G#-|-G--|-F#-|-F--|-E--|-D#-|-D--|-C#-|-C--|-B--|-A#-|-A(2)
D--|-C#-|-C--|-B--|-A#-|-A--|-G#-|-G--|-F#-|-F--|-E--|-D#-|-D(3)
G--|-F#-|-F--|-E--|-D#-|-D--|-C#-|-C--|-B--|-A#-|-A--|-G#-|-G(4)
B--|-A#-|-A--|-G#-|-G--|-F#-|-F--|-E--|-D#-|-D--|-C#-|-C--|-B(5)
E--|-D#-|-D--|-C#-|-C--|-B--|-A#-|-A--|-G#-|-G--|-F#-|-F--|-E(6)

Esto de los bemoles los usaras muy poco pero con lo que te he dicho es suficiente por ahora, hay
muchísimos más acordes pero con estos podrás tocar todas tus canciones favoritas, suerte!!!

ATENTAMENTE:
JORGE ARTURO ORTEGA MIRANDA
jaom1984@gmail.com
jaom1984@hotmail.es

Por Jorge Arturo Ortega Miranda 4