Está en la página 1de 7

que onda!!!!!

bueno esta es mi primera transcripcion, creo q


ya hay muchas pero esta suena a mi parecer un poco mejor(
eso creo)y no es tan dificil de tocar, espero y les guste.
( me tarde mucho pero por fin la termine )
INTRO
e
B
G
D
A
E

---------------9-----------------------------| x 2
------------9----9----9------------------12~-|
--------11---------11---11--------9--11------|
------9-------------------------9------------|
---------------------------------------------|
---0-------------------------0---------------|

VERSO.
e
B
G
D
A
E

Ayer me dijo un ave que volara


por donde no hay
-------------0-------------0--|-------------0-------------4--|
----------0-------------0-----|----------0-------------4-----|
-------6-------------6--------|-------1-------------4--------|
-----6-------------6----------|-----2-------------6----------|
--4-------------4-------------|----------------6-------------|
------------------------------|--0---------------------------|

e
B
G
D
A
E

ardor,
que lo sufrido no resusita
-------------0-------------0--|-------------0-------------0--|
----------0-------------0-----|----------0-------------0-----|
-------6-------------6--------|-------6-------------6--------|
-----6-------------6----------|-----6-------------6----------|
--4-------------4-------------|--4-------------4-------------|
------------------------------|------------------------------|

e
B
G
D
A
E

sueos y en rezos
nunca
murio
-------------0-------------4--|-------------0-------------0--|
----------0-------------4-----|----------0-------------0-----|
-------1-------------4--------|-------6-------------6--------|
-----2-------------6----------|-----6-------------6----------|
----------------6-------------|--4-------------4-------------|
--0---------------------------|------------------------------|

CORO
e
B
G
D
A
E

Que saque el aire de mis


ojos,
-------------0-------------0--|-------------0-------------0--|
----------0-------------0-----|----------0-------------0-----|
-------6-------------6--------|-------9-------------9--------|
-----6-------------6----------|-----9-------------9----------|
--0-------------0-------------|------------------------------|
------------------------------|--7-------------7-------------|

e
B
G
D
A
E

Que abrace al miedo con tus


sueos,
-------------0-------------0--|-------------0-------------0--|
----------0-------------0-----|----------0-------------0-----|
-------6-------------6--------|-------9-------------9--------|
-----6-------------6----------|-----9-------------9----------|
--0-------------0-------------|------------------------------|
------------------------------|--7-------------7-------------|

e
B
G
D
A
E

Que sea un guerrero de


sangre
para que nadie
-------------0-------------0--|-----------0------------------|
----------0-------------0-----|-----------0------------------|
-------6-------------6--------|-----------9------------------|
-----6-------------6----------|-----------9------------------|
--0-------------0-------------|-----------X------------------|
------------------------------|--7--7--7--7------------------|

e
B
G
D
A
E

Te haga dao
-------------------(7)--------|
----------------(7)-----------|
--------------(7)-(armnicos)-|(
------------(7)---------------|
------------------------------|
--7-8-9-----------------------|

si no les sale el sonido en


armonicos, pueden pisar
las cuerdas y suena casi
igual)

SOLO: el solo no me lo se en armonicos pero este es un


parecido muy bueno(creo q ya esta transcrito en el anterior)
de todas formas lo pongo(no es tan dificil si lo practican)
e
B
G
D
A
E

-----7-------------9--7-------------9--12---16--12-----9---11-|
---9----9-------7--------9--------9-----------------9---------|
-9--------9--8---------------6--------------------------------|
--------------------------------------------------------------|
--------------------------------------------------------------|
--------------------------------------------------------------|

e
B
G
D
A
E

-----7-------------9--7-------------9--12--9-----9------------|
---9----9-------7--------9--------9-----------9-----9---------|
-9--------9--8---------------6--------------------------------|
--------------------------------------------------------------|
--------------------------------------------------------------|
--------------------------------------------------------------|

despues se repite el verso


e
B
G
D
A
E

Ayer me dijo un ave que volara


hasta desinte-------------0-------------0--|-------------0-------------4--|
----------0-------------0-----|----------0-------------4-----|
-------6-------------6--------|-------1-------------4--------|
-----6-------------6----------|-----2-------------6----------|
--4-------------4-------------|----------------6-------------|
------------------------------|--0---------------------------|

e
B
G
D
A
E

grarme
que la distancia no es
-------------0-------------0--|-------------0-------------0--|
----------0-------------0-----|----------0-------------0-----|
-------6-------------6--------|-------6-------------6--------|
-----6-------------6----------|-----6-------------6----------|
--4-------------4-------------|--4-------------4-------------|
------------------------------|------------------------------|

cansancio
es fuerza, eres
tu
e -------------0-------------4--|-------------0----------0-----|
B ----------0-------------4-----|----------0-------------0-----|
G -------1-------------4--------|-------6-------------6--------|
D -----2-------------6----------|-----6-------------6----------|

A ----------------6-------------|--4-------------4-------------|
E --0---------------------------|--------------------------7/5-|
repetimos el coro de nuevo
e
B
G
D
A
E

Que saque el aire de mis


ojos,
-------------0-------------0--|-------------0-------------0--|
----------0-------------0-----|----------0-------------0-----|
-------6-------------6--------|-------9-------------9--------|
-----6-------------6----------|-----9-------------9----------|
--0-------------0-------------|------------------------------|
------------------------------|--7-------------7-------------|

e
B
G
D
A
E

Que abrace al miedo con tus sueos,


-------------0-------------0--|-------------0-------------0--|
----------0-------------0-----|----------0-------------0-----|
-------6-------------6--------|-------9-------------9--------|
-----6-------------6----------|-----9-------------9----------|
--0-------------0-------------|------------------------------|
------------------------------|--7-------------7-------------|

e
B
G
D
A
E

Que sea un guerrero de


sangre
para que nadie
-------------0-------------0--|-----------0------------------|
----------0-------------0-----|-----------0------------------|
-------6-------------6--------|-----------9------------------|
-----6-------------6----------|-----------9------------------|
--0-------------0-------------|-----------X------------------|
------------------------------|--7--7--7--7------------------|

e
B
G
D
A
E

Te haga dao
-------------------(7)--------|
----------------(7)-----------|
--------------(7)-(armnicos)-|
------------(7)---------------|
------------------------------|
--7-8-9-----------------------|

aqui va el intermedio q es precticamente lo mismo


e
B
G
D
A
E

-------------0-------------0--|-------------0-------------4--|
----------0-------------0-----|----------0-------------4-----|
-------6-------------6--------|-------1-------------4--------|
-----6-------------6----------|-----2-------------6----------|
--4-------------4-------------|----------------6-------------|
------------------------------|--0---------------------------|

e
B
G
D
A
E

-------------0-------------0--|-------------0-------------0--|
----------0-------------0-----|----------0-------------0-----|
-------6-------------6--------|-------6-------------6--------|
-----6-------------6----------|-----6-------------6----------|
--4-------------4-------------|--4-------------4-------------|
------------------------------|------------------------------|

e
B
G
D
A

-------------0-------------4--|-------------0----------0-----|
----------0-------------4-----|----------0-------------0-----|
-------1-------------4--------|-------6-------------6--------|
-----2-------------6----------|-----6-------------6----------|
----------------6-------------|--4-------------4-------------|

E --0---------------------------|--------------------------7/5-|
repetimos coro
e
B
G
D
A
E

que saque el aire de mis


ojos,
-------------0-------------0--|-------------0-------------0--|
----------0-------------0-----|----------0-------------0-----|
-------6-------------6--------|-------9-------------9--------|
-----6-------------6----------|-----9-------------9----------|
--0-------------0-------------|------------------------------|
------------------------------|--7-------------7-------------|

e
B
G
D
A
E

que abrace al miedo


con tus sueos,
-------------0-------------0--|-------------0-------------0--|
----------0-------------0-----|----------0-------------0-----|
-------6-------------6--------|-------9-------------9--------|
-----6-------------6----------|-----9-------------9----------|
--0-------------0-------------|------------------------------|
------------------------------|--7-------------7-------------|

e
B
G
D
A
E

que sea un guerrero de


sangre
para que nadie
-------------0-------------0--|----------0----0--------------|
----------0-------------0-----|----------0----0--------------|
-------6-------------6--------|----------9----9--------------|
-----6-------------6----------|----------9----9--------------|
--0-------------0-------------|----------X----X--------------|
------------------------------|--7--7--7-7 -7-7--------------|

e
B
G
D
A
E

te haga dao
para que nadie te haga
-----------0---0-0--0-0-0-----|-------------0-------------0--|
-----------0---0-0--0-0-0-----|----------0-------------0-----|
-----------9---9-9--9-9-0-----|-------6-------------9--------|
-----------9---9-9--9-9-9-----|-----6-------------9----------|
-----------X---X-X--X-X-X-----|--0---------------------------|
--7-8-9--9-9-9------9-9-9 7/5-|----------------7-------------|

e
B
G
D
A
E

dao
para que nadie te haga
-------------0----------0-----|-------------0-------------0--|
----------0-------------0-----|----------0-------------0-----|
-------9-------------9--------|-------6-------------9--------|
-----9-------------9----------|-----6-------------9----------|
------------------------------|--0---------------------------|
--9-------------9---------7/5-|----------------7-------------|

e
B
G
D
A
E

dao
para que nadie
---------0-------0-------0----|-------------0----------------|
---------0-------0-------0----|----------0-------------0-----|
---------9-------9-------9----|-------6-------------9--------|
---------9-------9-------9----|-----6-------------9----------|
---------X-------X-------X----|--0---------------------------|
-9--9--9-9 -9--9-9--9--9-9-7/5|----------------7-------------|

e
B
G
D
A

te haga dao
-------------------(7)--------|
----------------(7)-----------|
--------------(7)-(armnicos)-|
------------(7)---------------|
------------------------------|

E --7-8-9-----------------------|

bueno ahi esta(la pongo completa por que la verdad habemos


muchos que necesitamos ver la transcripcion completa)
me hubiera gustado poner los acordes pero no me los se,
la saque al puro ohido. espero les agrade

INTRO.
e
B
G
D
A
E

---------------9------------------------7~-| x 2
------------9----9----9--------------7-----|
--------11---------11---11--------9--------|
------9-------------------------9----------|
-------------------------------------------|
---0~------------------------0~------------|

Despues de esto voy a dividir la cancion el cuatro riffs:


riff 1 se toca donde se vea la nota C#m
e
B
G
D
A
E

------------------------------------|
--------------5-----------------5---|
--------6--4------------6---4-------|
-----6---------------6--------------|
---4--------------4-----------------|
------------------------------------|

riff 2 se toca con E


e ----------------------------4-----|
B ------------5------------5--------|
G ---------4------------4-----------|
D ------6------------6--------------|
A ---7------------------------------|
E ----------------------------------|
riff 3 se toca con A
e --------------------|
B ----------5-----5---|
G -------4-----4------|
D --------------------|
A ---7----------------|
E --------------------|
riff 4 se toca con B
e ---------------------|
B -------5-----5-------|
G ----------4----------|
D ---6-----------------|
A ---------------------|
E ---------------------|

Acordes y letra:

C#m(riff1)
E(riff2)
Ayer me dijo un ave que volara
C#m(riff1)
por donde no haya ardor
E(riff2)
que lo sufrido no resucita en suenios
C#m(riff1)
y en rezos nunca murio
CORO.
A(riff3)
B(riff4)
Que saque el aire de mis ojos
A(riff3)
B(riff4)
que abrace el miedo con tus suenios
A(riff3)
E(strummed)
que sea un guerrero de sangre
para que nadie te haga danio
SOLO.
e
B
G
D
A
E

------7-------------9--7-------------9--12---16--12-----9---11--|
----9----9-------7--------9--------9-----------------9----------|
--9--------9--8---------------6---------------------------------|
----------------------------------------------------------------|
----------------------------------------------------------------|
----------------------------------------------------------------|

e
B
G
D
A
E

------7-------------9--7-------------9--12--9-----9-------------|
----9----9-------7--------9--------9-----------9-----9----------|
--9--------9--8---------------6---------------------------------|
----------------------------------------------------------------|
----------------------------------------------------------------|
----------------------------------------------------------------|

C#m(riff1)
E(riff2)
Ayer me dijo un ave que volara
C#m(riff1)
hasta desintegrarme
E(riff2)
que la distancia no es cansancio
C#m(riff1) E-B-A(strummed)
es fuerza eres tu
CORO.
INTERLUDE STRINGS.
E-B-A (strummed)

CORO.
A
B
E-B-A
x 3
Para que nadie te haga danio.