Está en la página 1de 2

Willie Colon

Idilio(TAB)
MI
LA
RE
SO
SI
MI

-------------------------------------------------------------------------------------------------------8-----------5-----8---8---8-6-8-6---6---------------6-6---6---6---------6-----------------------------------------------------

MI
LA
RE
SO
SI
MI

------------------------------------------------------------------6-8-6-8-------8-----------------8-6-5---------5-6
------5-6-8-----8-6-5-----------------------------8-6--------------------------------------------------------------

MI
LA
RE
SO
SI
MI

-4-6-8---------------------------------------6---------------------------------------6-8-9-8-6-9-9-9-8-6-9---5-----------------------------------6-----------------------------------------------------------------------------------

MI
LA
RE
SO
SI
MI

-------------------------------------------------------------------------------------------------3-----------------6-5-----5-4-3-1-3-1-----------------------6-5---------------------------------------------------------------------

FAm
DO
FAm
Solo me alienta el deseo divino de hacerte mia,
FA
LA#m
mas me destruye la incetidumbre que estoy pasando,
DO
FAm
y es que la nieve cruel de los aos mi cuerpo enfria,
SOL
DO
y se me agota ya la paciencia por ti esperando.
DO
FAm
Y se me agota ya la paciencia por ti esperando,
FA
LA#m
que a besos yo te levante al rayar el dia,
RE#
SOL#
y que el idilio perdure siempre al llegar la noche.
DO#
DO
Y cuando llegue la aurora llena de goce,
FAm
se fundan en una sola tu alma y la mia.
FA

LA#m

Que a besos yo te levante al rayar el dia


(el dia nos sorprenda corazon)
RE#
SOL#
y que el idilio perdure siempre al llegar la noche,
(la noche sea tan solo de los dos)
DO#
DO
y cuando llegue la aurora llena de goce,
(juntos solos tu y yo)
FAm
se fundan en una sola tu alma y la ma.
______________________________________________________
Transcripcin del solo de trompeta.
MI
LA
RE
SO
SI
MI

------------------------------------------------------------------------4-3-1-3-4-----------------------3---------------3-----------3-------------3-2-1
-4------4-------2-3---------------3-2-----3-2--------1------1---------------------------2-1---------------------1--------------------------------------

MI
LA
RE
SO
SI
MI

-------------------------------------------------------------------------------------------------4---3---------------------------1-------------3-1-------2---------------3-3-1-3-1---1-3-1-4-3-1-------------2-------4-2-1---------------------------------------1-3-1---------------------------------------

MI
LA
RE
SO
SI
MI

-----------------------------------------------------4---3-------------------------------------------1---2-----------------------------------3-------------------0-3-------------5-4-3---1-3-1-------------------------2-1---1-6-5---------------------------------------------------------------------------

MI -------------------1------------------------------LA -------------3-4-3--------------------------------RE -------3-4-3--------------------------------------SO -1-3-1--------------------------------------------SI --------------------------------------------------MI --------------------------------------------------______________________________________________________


Se repite:
Que a besos yo te levante al rayar...
FAm

LA#m

DO

FAm

FAm

LA#m

DO

FAm

LA#m RE# SOL#


DO# DO
Soando, contigo, queriendo que se cumpla nuestro
FAm
idilio