Está en la página 1de 10

DE TAL MANERA ME AM

Marco Barrientos

C
G
De tal Manera me Amo,
Dm7
Am7 G
Que su vida no escatimo,
C
G
Hasta el final el se entrego,
F
G
C
Y a la muerte fue porque el me amo.
C
G
De tal Manera me Amo,
Dm7
Am7 G
Y no hay forma en que podre pagar,
C
G
El precio de su grande amor,
F
G C
Pero toda mi alma quiero dar.
Am
G C
Por su amor yo vivire,
Am
G C
De su amor yo cantare,
Am
G F
Con mi Jesus caminare,
G
Porque el me amo a mi, F
G
Am
G C
Por su amor yo vivire,
Am
G C
De su amor yo cantare,
Am G F

Con mi Jesus Caminare,


G
Porque el murio por mi, F
G
C
Le seguire.
SLO DE JESS LA SANGRE
En Espritu y en Verdad
INTRO: B - G#m//
B
G#m
B
G#m
Tu Sangre, habla mejor, Que todo el clamor, Que en esta tierra hay
F#
E
B G#m F#
Justicia para m, Se para a mi favor, Jess tu Sangre es //
CORO:
B
G#m
Que nos puede perdonar, Que nos puede completar
F#
E
B
G#m F#
Solo de Jess, solo de Jess la Sangre
B
G#m
Que te da otro corazn, y te hace amigo de Dios
F#
E
B
F#
E
Solo de Jess, solo de Jess la sangre
B
G#m
B
G#m
Tu Cruz habla del amor, De su corazn, Un camino nos abri
F#
E
Me acerco con valor, sin Confianza Terrenal,
B G#m F#
Jess tu Sangre es
CORO:
B
G#m
Que nos puede perdonar, Que nos puede completar
F#
E
B
G#m F#
Solo de Jess, solo de Jess la Sangre
B
G#m
Que te da otro corazn, y te hace amigo de Dios
F#
E
B
F#
E
Solo de Jess, solo de Jess la sangre
PUENTE:
B
G#m
F#
Gracias por tu Cruz, Gracias por tu Cruz, solo de Jess,

E
B
Solo de Jess la sangre
Final: B - F# - E.

VOY CANTANDO
Conquistando Fronteras

Intro:
D F#m G
SEGUNDA PARTE DE LA INTRO E INTERMEDIO
DDGG
Verso 1
D
A/F#
El tiempo, de la cancin lleg,
Bm
G/E
D
Los cielos, destilan gloria y salvacin
A/F#
G/E
La tierra resplandece con tu LUZ
G
G
Cautivndonos, con tu cruz y yo
CORO
D
F#m
//Voy cantando, voy cantando a tu presencia
G
A tu presencia, cantando santo//
INTERMEDIO Y AL PRINCIPIO
--------------------------------------------------D F#m G

PUENTE
Em
D
//Canta, mi espritu canta
Em
D
Danza, mi espritu danza//
SOLO
Em D Em D
CORO POR ULTIMA 2 VECES Y FINALIZA

TOMA STE MOMENTO


David Alfano

INTRO: // B-G#m// F#
C#m F#
B
//toma este momento y hazlo eterno
G#m
C#m F#
B
toma este momento hazlo tu aposento
G#m
C#m F#
B
toma esta alabanza bendice su sabia
G#m
C#m F#
B
toma esta alabanza que llene tu casa//
PRECORO:
F#
G#m
E
F#
tu eres mas de lo que yo puedo desear
F#
G#m
A
F#
me elevas mas de donde yo puedo llegar

CORO:
B
G#m
toma mi alma, toma mis fuerzas
C#m
F#
mis pensamientos y todo mi tiempo
B
G#m
toma mi amor, toma mi fe
C#m
F#
llevo tus marcas en toda mi alma
PUENTE:
E F#
G#m D#m
me falta la voz, me falta cancion
C#m F#
B
la eternidad, para adorarte

A Quien Ir
Marcos Witt
::InTrO::
G
A
B
F#
E|-3---------3|-5---------5|-7---------7|-2---------2||
A|------------|------------|------------|------------||
D|------------|------------|------------|------------||
G|------------|------------|------------|------------||
G
A
B
F#
E|-3---------3|------------|-7--------7-|-2---------2||
A|------------|-0---------0|------------|------------||
D|------------|------------|--------9---|------------||
G|------------|------------|------------|------------||
G
A
B
A
E|-3---------3|------------|----------2-|-5----------||
A|------------|-0---------0|-2----------|------------||
D|------------|------------|------------|------------||
G|------------|------------|------------|------------||
::EsTrOfA::

D
Bm
E|------------|-----------5|------------|------------||
A|-5---------5|-5-------5--|-2---------2|-2----------||
D|------------|------------|------------|------------||
G|------------|------------|------------|------------||
G
D
A
E|-3---------3|-3----------|------------|------------||
A|------------|------------|-5---------5|-0---------7||
D|------------|------------|------------|------------||
G|------------|------------|------------|------------||
::CoRo::
D
F#
G
E|------------|-2---2-2----|-3---3-3---3|-3---3-3----||
A|-5---5-5----|------------|---------5--|------------||
D|------------|------------|------------|------------||
G|------------|------------|------------|------------||
D
F#
G
E|------------|-2---2-2----|-3---3-3----|-3---3-3----7-10-|
A|-5---5-5----|------------|----------2-|-----------------|
D|------------|------------|------------|-----------------|
G|------------|------------|------------|-----------------|
E
G
A
E|-0---0-0----|-0---0-0---0-|-3---3-3---|-------------||
A|------------|----------7--|-----------|-0---0-0----0||
D|------------|-------------|-----------|-------------||
G|------------|-------------|-----------|-------------||
D
F#
G
A
E|------------|-2---2-2-----|-3---3-3------|------------||
A|-5---5-5----|-------------|----------5---|---------10s||...Estrofa...
D|------------|-------------|------------7-|-5--5-5-----||
G|------------|-------------|--------------|------------||

::Intermedio::
D
F#
G
A
Bb
E|------------|-2---2-2-----|-3---3-3---3--|-5---5-6----5||
A|-5---5-5----|-------------|----------5---|-------------||
D|------------|-------------|--------------|-----------8-||
G|------------|-------------|--------------|-------------||
Bm
Bm
A G
A
Bb
E|------------|----------5--|-3---3-3---3-|-5------6-----||
A|-2---2-2----|-2---2-2-----|-------------|--------------||
D|------------|-------------|-------------|--------------||
G|------------|-------------|-------------|--------------||
Bm
A
D
E|------------|-5------12---|-10----------||

A|-2---2-2---2|-----------12|-------------||
D|------------|-------------|-------------||
G|------------|-------------|-------------||
::FiNaL::
E
A
C
D
E|----------7-|-5-----------|-8-----------|-10-----------||
A|-7----------|-------------|-------------|--------------||
D|------------|-------------|-------------|--------------||
G|------------|-------------|-------------|--------------||

NUESTRO DIOS
Marco Barrientos
Intro: 1 vuelta solo teclado, luego...
E||-----------------------------------|-6------------8------------|
A||-6-S10------------S8---------------|---------------------------|
D||-----------------------------------|---------------------------| X3
G||-----------------------------------|---------------------------|
E||-----------------------------------|----------------6------------------|
A||-----------3-5---5-----8-----------|----8--------8---------------------|
D||-7-8-7---5-----3---3-5-------------|-10---8-10-8-----------------------|
G||-----------------------------------|-----------------------------------|

E||-6---6---8-8-8---------------------|--------------------------1--------|
A||---8-----------10----10-8-10-8-10--|----------------10-8-10-8----------|
D||------------------10---------------|-----------10-8--------------------|
G||-----------------------------------|-----------------------------------|
En esta esperan a q termine la guitarra sola
y repiten dos veces desde aqui

E||-6---6---8-8-8-1-3-----------------|-3-3-3-----------------------1-1-1-|
A||---8---8---------------------------|-------10------10-10---------------|
D||-----------------------------------|---------12-12-------10-10-8-------|
G||-----------------------------------|-----------------------------------|
E||---------------------1-1-1---------|-------------------------1-1-1-----|
A||-8---------8-8---------------------|-8-----8-8---8-----3-3-3-----------|
D||-----10-10-----8-8-7---------------|---9-9-----8---7-8-----------------|
G||-----------------------------------|-----------------------------------|

Precoro: Los cielos tiemblan con tu voz...


E||-----------------------------------|-6------------8------------|
A||-6-S10------------S8---------------|---------------------------|
D||-----------------------------------|---------------------------|
G||-----------------------------------|---------------------------|
Declaramos que eres santo...
E||-3(4)S-5(4)-6(4)-8(4)-6(16)-1(8)------|
A||---------------------------------8(8)-|
D||--------------------------------------|
G||--------------------------------------|
Coro: Cuan asombroso es nuestro Dios...
E||3(8)----------------------------------------6(8)-|
A||-----5-5---------5-5-3-3-5-5-6(4)-5(4)-8(8)------|
D||---------5-5-3-3---------------------------------|
G||-------------------------------------------------|
E||-----------------------------------|
A||-8-S13(8)---8(16)------------------| X2
D||-----------------------------------|
G||-----------------------------------|

Poderoso Invencible...
E||-3(8)-------------------1(8)-------|-----------------------------2-1---|
A||------13-15-13---------------------|-10-12-103(8)----------3(8)-------|
D||-----------------------------------|---------------10-12-10------------|
G||-----------------------------------|-----------------------------------|

Final: Solo de Guitarra


E||-3(16)-5(16)-6(16)-8(16)-|
A||-------------------------|

X2

*Nota a partir de aqui hacen dos toques por nota.

D||-----------10-8-7-8-10-------8-10--------||
G||-12-10-8-7-------------7-8-7------7-8-7--||
D||-10-8-10-------10-8-10------10-8-10-||
G||---------7-8-7---------7-8-7--------||
D||-------12-7------10-8-7-8-10-7-8-10--------||
G||-12-10------10-7--------------------7-8-7---||
D||-10-8-10-------10-8-10-------10-8-10-||
G||---------7-8-7---------7-8-7---------||

y caemos a A||------10----|

SOBERANO
Hillsong
ACORDES:> F,G,Dm,C,Csus4,Am,Am9

Verso I:
C Csus4 Am
Manos que
F/A

Am9

Fueron clavadas por mi


C Csus4 Am
Heridas que
F/A
Am9

Hablan de tu inmenso amor


Pre coro:
Dm
F
C
G
Por eso te llamo mi Cristo
F
Por eso te canto
Coro:
G
Dm
Dios del universo
F
Salvador eterno
C
Rey de toda la creacin
Dm
Redentor divino
F
Dios a ti me rindo
C
Gloria te doy

Dm

Verso III:
C Csus4 Am
Manos que
F/A
Am9
Se entregaron por amor
C Csus4 Am
Lo que soy
F/A
Am9
Siempre te dare Seor

Pre coro:
Dm
F
C
G
Por eso te llamo mi Cristo

Verso II:
C Csus4 Am
Santo Dios
F/A
Am9
Tu plan soberano es
C Csus4 Am
Al enviar
F/A
Am9
Tu hijo a la humanidad

F
Por eso te canto

Pre coro:
Dm
F
C
G
Por eso te llamo mi Cristo
F
Por eso te canto
Coro:
G
Dm
Dios del universo
F
Salvador eterno
C
Rey de toda la creacin
Dm
Redentor divino

F
Dios a ti me rindo
C
Gloria te doy
G
Dm
F
C
Santo, Santo, Santo Dios
G
Dm
F
C
Santo, Santo, Santo Dios

Dm

Coro:2X
G
Dm
Dios del universo
F
Salvador eterno
C
G
Rey de toda la creacin
Dm
Redentor divino
F
Dios a ti me rindo
C
Gloria te doy
G
Dm
F
C
Santo, Santo, Santo Dios
G
Dm
F
C
Santo, Santo, Santo Dios

Dm