Está en la página 1de 17

PICKUP TRUCK - Kings of Leon

----------------------------------------------------------------Tabbed by:jamesmckee92
Date tabbed out: 23rd August 2010
Tuning:standard
THIS SONG IS PROPERTY OF KINGS OF LEON AND ALL RESPECTIVE LABELS WHO OWN
THE
COPYRIGHT TO THIS, AS YET UNRELEASED, SONG FROM THE FORTHCOMING ALBUM "COME
AROUND
SUNDOWN" WHICH IS RELEASED OCTOBER 18TH 2010
Intro:
Lots of reverb-y effect on lead guitar, this is played a total of 7 maybe 8
times before
starts.
e|---------------------------------------------------------------|
B|--17\13~~~~~~~~------------------------------------------------|
G|---------------------------------------------------------------|
D|---------------------------------------------------------------|
A|---------------------------------------------------------------|
E|---------------------------------------------------------------|
Matthew (lead) plays this twice before bass comes in, then a further 4
times before
starts playing.
Caleb plays two chords throughout
e|-0----------0------------------| These chords are arpeggiated
B|-1----------1------------------| Listen to the song for the pattern
G|-0----------2------------------|
D|-2----------3------------------|
A|-3----------3------------------|
E|-3----------0------------------|
RIFF:
lead guitar - matthew
e|---------------------------------------------------------------|
B|---------------------------------------------------------------|
G|--10~--9--------------------------9----------------------------|
D|----------------12--10~~-----------------10~~------------------|
A|-----------10--------------------------------------------------|
E|---------------------------------------------------------------|
Bass: (repeated throughout song)
G|---------------------------------------------------------------|
D|---------------------------------------------------------------|
A|---------------------------------------------------------------|
E|-88888-10-5-3h55555p3-0h1--------------------------------------|
(1st Verse)
C
Am
F
C
Am
Walk you home to see, where your livin' around, and I know its late
C
Am
F
C
Am
Pour yourself on me, And you know I'm the one, that you won't forget

F
F

(2nd Verse)
C
Am
F
C
Lay your hand on mine, I see something ain't right, &

Am
I see you weep

C
Am
F
C
Am
When you come around, see your fixin' to shine, & my faith won't keep

(Chorus)
C
Yeah i get so emotional
G
Am
I didn't mean to get physical
F
C
But when he pulls in and rev's it up
G
Am
I see you crawl out a Pick Up truck
F
C
And in the moonlight I run him down
G
Am
All kickin screamin & rolling around
F
C
A little piece of a bloody tooth
G
Am
Just so you know I will think of you
F
C
Just so you know ohhhhh
(3rd Verse)
C
F
Trembling
C
Cracklin'

Am

Am

knees are weak, and its cold as a hole, hug your bones and skin
Am
F
C
Am
F
woods gone white, and my eyes swolled up now, I can see the light

(Chorus)
C
Hate to get so emotional
G
Am
I didn't mean to get physical
F
C
But when he pulls in and rev's it up
G
Am
I see you crawl out a Pick Up truck
F
C
And in the moonlight I run him down
G
Am
All kickin screamin & rolling around
F
C
A little piece of a bloody tooth
G
Am
Just so you know I will think of you
F
C
Just so you know I will be with you
(Repeat Chorus)

The Beatles-Blackbird
Tabbed By Vince menikmati50@hotmail.com

any comments? questions?

e-------------------------------------------------------------------b--0---1---3---12---12---12---12---0---1---3---12---12---12---12-----

g----0---0---0---00---0----00------------0---0---0---00----0----00--d-------------------------------------------------------------------a------0---2---10---10---10---10-------0---2---10---10---10---10----e--3-------------------------------3--------------------------------e------3-------5----------------3-----------------------------------b--5-------7-------8---8----7-------5---4---3---2---1----0----------g-------------------00--00-----------00--00--00--00--00-------------d-------------------------------------------------------------------a--3---4---5---6---7---6----5---4---3---3---2---0---0---------------e--------------------------------------------------------3----------e-------------------------------------------------------------------b--5---4---3---2---1---0------0----1---3---12---12---12---12--------g---0---0---0---00--00----------0----0---0----00---0----00----------d-------------------------------------------------------------------a--3---3---2---0-------------------0---2---10---10---10---10--------e----------------------3------3-------------------------------------e------3-------5----------------3-----------------------------------b--5-------7-------8---8----7---------5---4---3---2---1---2---0-----g--------------------00--00------------00--00--0000---00-----------d-------------------------------------------------------------------a--3---4---5---6---7---6----5---4-----3---3---2---0---0---0---------e-------------------------------------------------------------3-----e-------------------------------------------------------------------b--10-8---6---4---3-----5------10---8---6---4---3---2---1---0------g----0---0---0---0---00------------0---0---0---0---0--00--00--------d-------------------------------------------------------------------a---8---7----5---3---2---3-------8---7---5---3---2---0---0----------e------------------------------------------------------------3------e-------------------------------------------------------------------b--0---1---3---12---12---12---12------------------------------------g----0---0---0---00---0----00---------------------------------------d-------------------------------------------------------------------a------0---2---10---10---10---10------------------------------------e--3----------------------------------------------------------------e------3-------5----------------3-----------------------------------b--5-------7-------8---8----7-------5---4---3---2---1-------0-------g---------------------00--00----------00--00--00--00--00------------d-------------------------------------------------------------------a--3---4---5---6---7---6----5---4---3---3---2---0-------------------e-----------------------------------------------------------3-------e-------------------------------------------------------------------b--10---8---6---4---3-----5------10---8---6---4---3---2----1----0---g----0---0---0---0---00------------0---0---0---0---0---00--00-------d-------------------------------------------------------------------a---8---7---5---3---2-----3-------8---7---5---3---2---0---0---------e---------------------------------------------------------------3---e-------------------------------------------------------------------b--0---1---3---12---12---12---12------------------------------------g----0---0---0---00---0----00---------------------------------------d-------------------------------------------------------------------a------0---2---10---10---10---10------------------------------------e--3-----------------------------------------------------------------

Here comes my baby - Cat Stevens


-----------------------------------------------------------------------------Tabbed by: DJ
Tuning: Standard

E
B
G
D
A
E

G(type2)
D(type2)
C(type2)
D(type2)
|----------10-------------10---|--------8---------------10---|
|------12-------------10-------|-----8--------------10-------|
|--12-------------11-----------|--9-------------11-----------|(Twice)
|------------------------------|-----------------------------|
|------------------------------|-----------------------------|
|------------------------------|-----------------------------|
2nd time (In... the...)

G
D
C
G
D
Dsus4 D
Dsus2 D
...mid - night moon - light I'll...
C
D
G(type2) D(type2) C(type2) D(type2)
...Be walking a long, & lonely mile,
G
D
C G D
Dsus4
D
Dsus2 D
And ever - y time I do,
C
D
G
D
I keep seeing this picture of you!
C

D
G
D
C
D
G
D
...Here comes my ba - by,
here she comes now,
C
D
G
D
C
D
C
D
And it comes as no sur - prise to me, with another guy,
Dsus4
D
G
D
C
D
G
D
Here comes my ba - by,
here she comes now,
C
D
G
D
C
D
Walking with a love, with a love that's, oh, so fine,
C
D
Dsus4
D
G
D
C
D
Never could be mine, no matter how I try---------------------!

G(type2) D(type2) C(type2) D(type2)


/ /
/ / | / /
/ / | (twice)

G
D
C
G
D
Dsus4 D
Dsus2 D
You nev - er walk a - lone,
C
D
G(type2) D(type2) C(type2) D(type2)
And you're forever talking on the phone,
G
D
C
G
D
C
D
G
D
I've tried to call you names, but every time it comes out the same!
C

D
G
D
C
D
G
D
...Here comes my ba - by,
here she comes now,
C
D
G
D
C
D
C
D
And it comes as no sur - prise to me, with another guy,
Dsus4
D
G
D
C
D
G
D

Here comes my ba - by,


here she comes now,
D
G
D
C
D
Walking with a love, with a love that's, oh, so fine,
C
D
Dsus4
D
G
D
C
D
Never could be mine, no matter how I try---------------------!
C

G(type2) D(type2) C(type2) D(type2)


/ /
/ / | / /
/ / | (twice)

D
G
D
C
G
D
Dsus4 D
Dsus2 D
I'm still wait - ing for your heart,
C
D
G(type2) D(type2)
'Cause I'm sure that... some day it's gonna start,
C(type2) D(type2)
G
D
C
G
D
Dsus4 D
Dsus2 D
You'll be mine to hold each day,
C
D
G
D
But,'til then, this... is all that I can say...
C

D
G
D
C
D
G
D
...Here comes my ba - by,
here she comes now,
C
D
G
D
C
D
C
D
And it comes as no sur - prise to me, with another guy,
Dsus4
D
G
D
C
D
G
D
Here comes my ba - by,
here she comes now,
C
D
G
D
C
D
Walking with a love, with a love that's, oh, so fine,
C
D
Dsus4
D
G
D
C
D
Never could be mine, no matter how I try---------------------!
G(type2) D(type2) C(type2) D(type2)
D
|
C

/
/ / |
...Here comes my ba - by,
here she comes now,
D
G
D
C
D
C
D
And it comes as no sur - prise to me, with another guy,
Dsus4
D
G
D
C
D
G
D
Here comes my ba - by,
here she comes now,
C
D
G
D
C
D
Walking with a love, with a love that's, oh, so fine,
C
D
Dsus4
D
G
D
C
D
Never could be mine, no matter how I try---------------------!
-----------------------------------------------------------------G(type 2)
D(type 2)
C(type 2)
G
D
Dsus4
Dsus2
C

=
=
=
=
=

=
=
=

x x x 12 12 10
x x x 11 10 10
x x x 9 8 8

320033
xx0232
xx0233
xx0230
x32010

Kings of Leon - Pyro


Album: Come Around Sundown (2010)
Chorded by Tony Crivello
myspace.com/tonycrivello
youtube.com/fallingardor
fallingardor.posterous.com
E|--------------------------------------------------|
B|----------4------------4----------4---------4-----|
G|----4-------4-----4------4----4-----4---4-----4---|
D|--2---2-------2-----2-------2---2-----1---1-----2-|
A|--------------------------------------------------|
E|--------------------------------------------------|
E|--------------------------------------------------|
B|----------4---------4--------4---------4----------|
G|----6---6----6---6----6---6----6---6--------------|
D|---------------------------------1-----2----------|
A|--------------------------------------------------|
E|--------------------------------------------------|
Repeat
C#m: X-4-6-6-5-x
A: 5-7-7-6-0-0
E: 0-2-2-1-0-0
G#: 4-6-6-x-x-x
C#m

C#m
Single book of matches,
A
E
Gonna burn what's standing in the way.
C#m
Roaring down the mountain,
A
E
Now they're calling on the fire brigade.
G#
Bury all the pictures,
A
E
and tell the kids that I'm okay.
C#m
If'n I'm forgotten,
A
E
You'll remember me for today.
C#m - A
I...
E
I won't ever be your cornerstone.
C#m - A
I...
E
I won't ever be your cornerstone.

C#m
All the black inside me
A
E
Is slowly seeping from the bone.
C#m
Everything I cherish
A
E
Is slowly dying, or it's gone.
G#
Little shaken babies
A
E
And drunkards seem to all agree,
C#m
Once the show gets started,
A
E
It's bound to be a sight to see.

G#-A-E
I won't ever be your cornerstone.
G#-A-E
I don't wanna be here holding on.
G#-A
I won't ever be your cornerstone.

THIS MODERN LOVE


Intro/Verse
E|--------------------------------------------------------------------|
B|--------------------------------------------------------------------|
G|-----------------------------------0---0---0---0---2---2---2---0----|
D|--2---2---2---2---2---2---2---2--2---2---2---2---3---3---3---3------|
A|3---3---3---3---3---3---2---2---------------------------------------|
E|--------------------------------------------------------------------|
E|--------------------------------------------------------------------|
B|--------------------------------------------------------------------|
G|--------------------------------------------------------------------|
D|--2---2---2---2---2---2---2---2---2---2---2---2---------------------|
A|3---3---3---3---3---3---2---2---0---0---0---0-----------------------|
E|--------------------------------------------------------------------|
Repeat
Verse
E|--------------------------------------------------------------------|
B|1-------1-------0-------1-------1-------1-------0-------1-----------|
G|----0-------0-------0-------0-------0-------0-------0-------0-------|
D|----------------------------------2---2---2---2---3---3---3---2-----|
A|--3---3---3---3---3---3---3---2-------------------------------------|
E|--------------------------------------------------------------------|
E|--------------------------------------------------------------------|
B|1-------1-------0-------1-------1-------1---------------------------|

G|----0-------0-------0-------0-------0-------0-----------------------|
D|--------------------------------------------------------------------|
A|--3---3---3---3---3---3---3---2---0---0---0---0---------------------|
E|--------------------------------------------------------------------|
Repeat
Chorus
E|-------3--1--0--0------0-0--------3--1--0-------0-------------------|
B|---------------1--1----1-1----------------1----1-1------------------|
G|-----0-----------------0-0------0-------------2---2-----------------|
D|--2--------------------0-0----2--------------2-----2----------------|
A|3----------------------2-2--3---------------0-----------------------|
E|---------------------3-3-3------------------------------------------|
E|-------3--1--0--0------0-0----0--1--0--3----------------------------|
B|---------------1--1----1-1----1-------------------------------------|
G|-----0-----------------0-0----0-------------------------------------|
D|--2--------------------0-0----2-------------------------------------|
A|3----------------------2-2--3-3-------------------------------------|
E|---------------------3-3-3------------------------------------------|
Repeat
MGMT - Kids Acoustic
Capo on 2
Intro
Em
C
G
D/F#
e|-----------------|-0---2-0---------|-----------------|-----------------|
B|---------0---3---|-----------3---0-|-----------------|---------1/0-----|
G|-0---2-----------|---0-------------|-----------------|-2-----------2/0-|
D|---2---2---2---2-|-----------------|---0---0---0---0-|---0---0---------|
A|-----------------|-3---3---3---3---|-----------------|-----------------|
E|-0---0---0---0---|-----------------|-3---3---3---3---|-2---2---2---2---|
Em
C
G
D/F#
e|-----------------|-0---2-0---------|-----------------|-----------------|
B|---------0---3---|-----------3---0-|-----------------|-----------------|
G|-0---2-----------|---0-------------|-----------------|-2---------------|
D|---2---2---2---2-|-----------------|---0---0---0---0-|---0---0---0---0-|
A|-----------------|-3---3---3---3---|-----------------|-----------------|
E|-0---0---0---0---|-----------------|-3---3---3---3---|-2---2---2---2---|
Em
C
G
D/F#
e|-----------------|-0---2-0---------|-----------------|-----------------|
B|---------0---3---|-----------3---0-|-----------------|---------1/0-----|
G|-0---2-----------|---0-------------|-----------------|-2-----------2/0-|
D|---2---2---2---2-|-----------------|---0---0---0---0-|---0---0---------|
A|-----------------|-3---3---3---3---|-----------------|-----------------|
E|-0---0---0---0---|-----------------|-3---3---3---3---|-2---2---2---2---|
Em
C
G
G
e|-----------------|-----------------|-----------------|-----------------|
B|---------0-------|-------------0---|-----------------|-----------------|
G|-0---2-------2---|-0---2-0---------|-0---------------|-----------------|

D|---2---2---2---2-|---2-------2-----|---0---0---0---0-|---0---0---------|
A|-----------------|-3---3---3---3---|-----------------|-----------0-----|
E|-0---0---0---0---|-----------------|-3---3---3---3---|-3---3---3---3-2-|
___________________________________________________________________________
Verse
Em
C
G
D/F#
e|-----------------|-----------------|-----------------|-----------------|
B|-----------------|-----------------|-----------------|-----------------|
G|-----------------|-----------------|-----------------|-----------------|
D|---2---2---2---2-|---2---2---2---2-|---0---0---0---0-|---0---0---0---0-|
A|-----------------|-3---3---3---3---|-----------------|-----------------|
E|-0---0---0---0---|-----------------|-3---3---3---3---|-2---2---2---2---|

MOONAGE DAYDREAM from Ziggy Stardust


D
F#
Bm
I'm an alligator, I'm a mama-papa coming for you
Bm/A
E
G
I'm the space invader, I'll be a rock 'n' rolling bitch for you
D
F#
Keep your mouth shut, you're squawking like a pink monkey bird
Bm
Bm/A
E
And I'm busting up my brains for the words
CHORUS:
G
Bm7
E
Keep your 'lectric eye on me babe
G
Bm7
E
Put your ray gun to my head
G
Bm7
E
Press your space face close to mine, love
D
E
Freak out in a moonage daydream oh yeah!
D
F#
Bm
Don't fake it baby, lay the real thing on me
Bm/A
E
G
The church of man, love, is such a holy place to be
D
F#
Make me baby, make me know you really care
Bm
Bm/A E
Make me jump into the air
CHORUS 2

SOLO: Bm

F#

Bm

F#

CHORUS 3 and CHORUS 4


SOLO: Bm

F#

until fade...

----------------------------------------FIRST SOLO: On the record this is performed by a recorder and saxophone


playing
different harmonies. Here's the main harmony for guitar. It can be played
within
barre chords for an interesting solo piece:
Bm
A
G
F#
E-2----------5----------3----------2-------5------B-323232323--5----------3----------2-------5------G-4--------4-656565656--434343434--3232323-6565656D-4----------7--------7-5--------5-4-------7------A-2----------7----------5----------4-------7------E------------5----------3----------2-------5------OUTRO SOLO: This sounds like an improvised solo. It's quite hard to
transcribe
these because they're all about feeling. There's lots of manic bending and
lengthy bends. He also uses a delay pedal to give it that 'daydreamy'
effect.
The solo is basically in Bm:
Delay
E-------------------------------------------------------B--12B-79-10-10B-17B-17B--------------------------------G-7----------------------------------------------16B-16BD------------------------799-89-11-12-14-12-14-16-------A-------------------------------------------------------E-----------------------------------------------------------------------------------------------CHORDS: EADGBE
-----G
320033
D
XX0232
Bm
X24432
Bm7
X24232
E
022100
A
X02220
F#
244322
Bm/A
X04432

Mando Diao - Hail the sunny days


Capo on the second fret.
G Cmaj7 (x2)
Verse:

G
Cmaj7
Share some thoughts for all the pretty people
G
Cmaj7
Bless the gods and all the wealthy fellas
Bm
Em
Bm
See how they run see how they try
Em
D
to give their best for all our beauty
G
Cmaj7
They wear dignity like the falling angels
G
Cmaj7
Proper shoes and the velvet trousers
Bm
Em
Bm
We were tramps and whores who gathered around
Em
D
Lets shed a tear for those whos crying..oh no
Chorus:
G
H7 Em
C
And there aint no shame everybodys
G
H7
Em C
waiting for a sunny day everybody
G
H7
Em
C
Cm
G
gets their shot of being someone So use your sunny day
G Cmaj7
G Cmaj7
Bm Em Bm
Em D
Were the dirt in the fields you're running
Were the springtimes first carnation
And we are all alone and so we stand
Above you all, the matched creation
Lets all sing for our broken future
Lets sing for all the idiots who will not share their lands
Their lands of gold and big ideas
We aint got nothing to live up to

"Hybrid Moments" (Misfits cover)


Bouncing Souls
Verse:
D
Bm
If you're gonna scream, scream with me
G
Moments like this never last

D#

D
Bm
When new creatures rape your face

G
D#
Hybrids opened up the door

Bridge:
Bm
A
Ooh baby when you cry
G
Your face is momentary
D
A
You hide your looks
G
Behind these scars

Chorus:
D
In hybrid moments
[ Tab from: http://www.guitaretab.com/b/bouncing-souls/245236.html ]
Bm
G
D#
D
Give me a moment
D
Give me a moment
Bm
G
Give me a moment

D#

Bridge:
Bm
A
Ooh baby when you cry
G
Your face is momentary
D
A
You hide your looks
G
A
Behind these scars

Capo 3
Riff:
e|---------------------|
B|----------3-3--------|
G|------2-2-----2-2----|
D|--0-0----------------|
A|---------------------|
E|---------------------|

x8

A
G
Out here in the fields
D
A
G
I fight for my meals
D
A G
D
A G
I get my back into my living
D
A
G
I don't need to fight
D
A G
To prove I'm right
D
A
G
D
A
G
I don't need to be forgiven, yeah, yeah, yeah, yeah, yeah, yeah
D A G x5
A x3
A
D
Don't cry
A
G
Don't raise your eye
D
G
A
It's only teenage wasteland
D

A G
Sally, take my hand

A
G
We'll travel south cross land
D
A
G
D
A
Put out the fire, and don't look past my shoulder
D
A G
The exodus is here
D
A
G
The happy ones are near
D
A
G
D
A G
Let's get together, before we get much older
D

x2

D
Teenage wasteland

D
It's only teenage wasteland
D
A
G
Teenage wasteland, Oh, yeah
D
A
G
Teenage wasteland
A
A G G
They're all wasted!

G
Bm
C
Shes fighting with the sky
G
Bm
Em
She thinks she can
G
Bm
C

Livin within a lie


G
Bm
Em
C
She thinks she can
G
Bm
Em
C
But nobody knows what lies behind
G
Bm
Em
C
The days before the day we die
G
Em
Bm
Die, die, die, die, die, die, die
Die, die, die, die, die, die, die
C
Die, die, die
[ Tab from: http://www.guitaretab.com/t/the-avett-brothers/253203.html ]
G
Bm
C
She puts her hands against
G
Bm
Em
C
The life she had
G
Bm
C
Living with ignorance
G
Bm
Em
C
Blissful and sad
G
Bm
Em
C
But nobody knows what lies behind
G
Bm
Em
C
The days before the day we die
G
Em
Bm
Die, die, die, die, die, die, die
Die, die, die, die, die, die, die

Capo 1st fret


C
C
I etched the face of a stopwatch
Am
On the back of a raindrop
E
F
And did a swap for the sand in an hourglass.
C
Am
I heard the nun happy ending it sort of sounds like youre leaving
E
F
C
I heard the piledriver waltz, it woke me up this morning.
BREAK
F
Dm
Am
You look like youve been for breakfast at the heartbreak hotel
F
Dm
Am
And sat in a back booth by the pamphlets and the literature on how to lose.
F
G
Am
E
Your waitress was miserable and so was your food.
F
G
If youre gonna try and walk on water make sure you wear your comfortable
shoes.

C
Am
E
Mysteries flashing amber go green when you answer but the red on the rest
of
F
the questionnaire never changes.
C
Am
I heard the news that youre planning to shoot me out of a cannon.
E
F
C
I heard the piledriver waltz, it woke me up this morning.

GATES OF THE WEST


C
I would love to be the lucky one on Chill Avenue
Am
Who could keep your hear warm when ice has turned it blue
G
But with the beggin' sleeping losers as they turn in for the night
C
I'm looking back for home and I can see the lights
C
I should be jumpin' shoutin' that I made it all this way
Am
>From Camden Town Station to 44th and 8th
G
Not many make it this far and many say we're great
C
But just like them we walk on an' we can't escape our fate
Am
F
G
Can't you hear the sighing
C
F
Eastside Jimmy and Southside Sue
G
Csus
Both say they needed something new

CHORUS
C
So I'm standing at the gates of the West
Em
I burn money at the lights of the sign
F
G
C
The city casts a shadow of the perfect crime
I'm standing at the gates of the East
Em
I take my pulse and the pulse of my friend
F
G
C
The city casts a shadow, will I see you again?

The immigrants an' remnants of all the glory years


Are clustered around the bar again for another round of beers
Little Richard's in the kitchen playing spoons and plates
He's telling the waitress he's great
Ah say I know somewhere back'n'forth in time
Out on the dustbowls, deep in the roulette mine
Or in a ghetto cellar only yesterday
There's a move into the future for the U.S.A.
I hear them crying
Eastside Jimmy and Southside Sue
Both say they needed something new

You used to get it in your fishnets


C#m
Now you only get it in your night dress
F#m
Discarded all the naughty nights for niceness
B
Landed in a very common crisis
E
Everything's in order in a black hole
C#m
Nothing seems as pretty as the past though
F#m
The Bloody Mary's lacking her Tabasco
B
Remember when you used to be a rascal?
F#m
Oh the boy's a slag
B
The best you ever had
F#m
The best you ever had
B
F#m
Is just a memory and those dreams
B
But as daft as they seem
F#m
As daft as they seem
A
My love when you dream them up...
E
Flicking through a little book of sex tips
C#m
Remember when the boys were all electric?
F#m
Now when she's told she's gonna get it
B
I'm guessing that she'd rather just forget it
E
Clinging to not getting sentimental
C#m

Said she wasn't going but she went still


F#m
Likes her gentlemen not to be gentle
B
Was it a Mecca dauber or a betting pencil?

1st Verse
C#/G#
G#7
Bbm
In the middle of the night...
C#/G#
G#7
Bbm
In the middle of the night I call your name

Chorus
[ Tab from: http://www.guitaretab.com/l/lennon-john/10423.html ]
C#/G#
G#
C#/G#
F#
C#/G#
Oh
Yo----------ko.................
C#/G#
Oh

G#
Bbm
Yo----------ko..

F#
C#/G#
My love will turn you on......