Está en la página 1de 2

David Quinlan - guas Profundas

Tom: C
(intro solo)
Am7
F
G
Em
G
A
E|--------------|-------------|-------------|------|------|------|
B|--------------|-------------|-------------|------|------|------|
G|------5-4-5---|------5-4-5--|--0-5-0-4-5--|------|------|------|
D|---2----------|---3---------|5------------|--2---|--5---|--7---|
A|--------------|-------------|-------------|--2---|--5---|--7---|
E|--------------|-------------|-------------|--0---|--3---|--5---|
(continuao)
Am7
F
G
Em
E|-----------|----------|----------|-----|-----|
B|-----1-0h1-|----1-0h1-|--8--8--8-|8-8-8|8-8-8|
G|-----------|----------|--7--7--7-|7-7-7|7-7-7|
D|----2-2----|-3-3-3----|-5--5--5--|-----|-----|
A|---0-------|----------|----------|-----|-----|
E|-----------|----------|----------|-----|-----|

(intro solo 2x)


(solo)
Am
F
G (Em7
G)
Vem sobre ns como a chuva
Am
F
G
(Em7
Faa as guas subirem neste lugar
Am
F
G (Em7
G)
Libera Teu rio sem medidas
Am
F
G
(Em/G
G)
Vem Tuas guas agitar (2x)

G)

Am
F
G
(Em7
Eu quero nadar, eu quero nadar no Teu rio
Am
F
G
(Em7
Eu quero beber, eu quero beber de Tuas guas
Dm
Existem
pgina 1
Dm
Existem
Dm
Existem
Dm
Mas tem

G)
G)

F
G G4 G G4
guas que do nos artelhos
F
G G4 G G4
guas que do nos joelhos
F
G G4 G G4
guas que do nos lombos
F
G
guas mais profundas eu sei, eu sei, eu sei

(4x)

E|-12-8-----------8-12-8-------------13-8--------------10-7---------B|-------10-8-10-----------10-8-10--------10-8-10---------8-7-8-----G|------------------------------------------------------------------D|------------------------------------------------------------------A|------------------------------------------------------------------E|-------------------------------------------------------------------

E|-10-7--------12-10------------------------------------------------B|------8-7-8--------13-12-10-8-10-8--------------------------------G|-----------------------------------10-9-7-9-7-5-7-5---------------D|----------------------------------------------------7-5-----------A|------------------------------------------------------------------E|------------------------------------------------------------------(repete 2x tudo)
Am7
F9
G
............
Am7
F9
G
............
Am7
F9
G
............
Am7
F9
G
............