Está en la página 1de 2

our time now - plain white t's

every second counts


tabber: marc e.

~ = vibrato
pm = palm mute
() = optional

tuning: eadgbe (standard)

"oh oh oh oh oh.." intro/chorus

e | ---------------------------------------------------------------------- |
b | ---------------------------------------------------------------------- |
g | ------------5--------------------------------------------------------- |
d | ---(5555)---5-x8----3--------7--------2---------3--------5------------ |
a | ---(5555)---3-------3-x8-----7-x4-----2-x4------3-x4-----5-x4--------- |
e | ---(3333)-----------1--------5--------0---------1--------3------------ |

^ (optional, play with drums after "oh oh oh oh oh..")

verse

e | ---------------------------------------------------------------------- |
b | ---------------------------------------------------------------------- |
g | ------------5--------------------------------------------------------- |
d | ------------5-x8----3--------7--------2---------3--------5------------ |
a | ------------3-------3-x8-----7-x4-----2-x4------3-x4-----5-x4--------- |
e | --------------------1--------5--------0---------1--------3------------ |

pmpmpmpmpmpmpmpmpmpmpmpmpmpmpmpmpmpmpmpmpmpmpmpmpmpm

breakdown (after 1st chorus)

e | ---------------------------------------------------------------------- |
b | ---------------------------------------------------------------------- |
g | ---------------------------------------------------------------------- |
d | ---7---77----77----77----75555-----77---55-----7(~)------------------- |
a | ---5---55----55----55----55555-----55---55-----5(~)------------------- |
e | ---5---55----55----55----53333-----55---33-----5(~)------------------- |

bridge (after 2nd chorus)

e | ---------------------------------------------------------------------- |
b | ---------------------------------------------------------------------- |
g | ---------------------------------------------------------------------- |
d | -----7----------10---------------------------------------------------- | x2
a | -----7-x8-------10-x8------------------------------------------------- |
e | -----5----------8----------------------------------------------------- |

3rd chorus

e | ---------------------------------------------------------------------- |
b | ---------------------------------------------------------------------- |
g | -----5(~)------------------------------------------------------------- |
d | -----5(~)----3(~)-----7--------2--------3----------5---5----5(~)------ |
a | -----3(~)----3(~)-----7-x4-----2-x4-----3-x4-------5---5----5(~)------ |
e | -------------1(~)-----5--------0--------1----------3---3----3(~)------ |

pmpmpmpmpmpmpmpm

bridge 2

e | ---------------------------------------------------------------------- |
b | ---------------------------------------------------------------------- |
g | ---------------------------------------------------------------------- |
d | -----7----------10-----------7----------5----------------------------- |
a | -----7-x8-------10-x8--------7-x8-------5-x8-------------------------- |
e | -----5----------8------------5----------3----------------------------- |

outro

e | ---------------------------------------------------------------------- |
b | ---------------------------------------------------------------------- |
g | ---------------------------------------------------------------------- |
d | ------7(~)-------2(~)--------3(~)------------------------------------- |
a | ------7(~)-------2(~)--------3(~)------------------------------------- |
e | ------5(~)-------0(~)--------1(~)------------------------------------- |

song order:

intro
verse x2
chorus x2
breakdown
verse x2
chorus x2
bridge
3rd chorus
chorus
bridge 2
outro

my first tab, so comments and feedback are appreciated. (: