Está en la página 1de 13

OK.

ESTE TEMA ME COSTO MUCHO SACARLO,


ESTE INTRO ES UN POCO DIFCIL DE SACARLO
PERO SOLO ESCUCHEN LA CANCIN
LAS OTRAS VERSIONES NO SALAN PARA NADA
ENCONTRARAN QUE ESTA TAB. ESTA BIEN
Intro:
C
|
|
e)|--------------0----------|-------------0-----------|
B)|--------1--------1-----1-|-------1--------1-----1--|
G)|-----0-------------------|----0--------------------|
D)|-----------3--------2----|----------3--------2-----|
A)|--3----------------------|-3-----------------------|
E)|- -----------------------|-------------------------|
G
e)|------------0---------------|
B)|-------3--------3------3----|
G)|----------------------------|
D)|-----0----0---------0-------|
A)|----------------------------|
E)|- 3-------------------------|

e)|---1---0-------|
B)|-----------3---|
G)|---------------|
D)|---------------|
A)|-------0---2---|
E)|---3-----------|

EL INTRO ES IGUAL QUE


C
Ay como me
e)|---------0-------|
B)|-----1-----1---1-|
G)|--0--------------|
D)|-------3-----2---|
A)|3----------------|
E)|-----------------|
C
No poder cantar
e)|-1----0--------|
B)|-------------3-|
G)|---------------|
D)|---------------|
A)|------0------2-|
E)|-3-------------|

LOS PRIMEROS VERSOS

Cmo expree)|---------0-------|
B)|-----1-----1---1-|
G)|--0--------------|
D)|-------3-----2---|
A)|3----------------|
E)|-----------------|

sarte sin
e)|---------0-------|
B)|-----1-----1---1-|
G)|--0--------------|
D)|-------3-----2---|
A)|3----------------|
E)|-----------------|

C
Me muero si no ests.
e)|-1----0--------|
B)|-------------3-|
G)|---------------|
D)|---------------|
A)|------0------2-|

x2

G
duele estar
despierto y
e)|---------0-------| e)|---------0-------|
B)|-----1-----1---1-| B)|-----1-----1---1-|
G)|--0--------------| G)|--0--------------|
D)|-------3-----2---| D)|-------3-----2---|
A)|3----------------| A)|3----------------|
E)|-----------------| E)|-----------------|

G
palabras,
e)|---------0-------|
B)|-----1-----1---1-|
G)|--0--------------|
D)|-------3-----2---|
A)|3----------------|
E)|-----------------|

E)|-3-------------|
Que el tiempo
e)|---------0-------|
B)|-----1-----1---1-|
G)|--0--------------|
D)|-------3-----2---|
A)|3----------------|
E)|-----------------|
C
hoy lloro de soledad;
e)|---1----0--------|
B)|---------------3-|
G)|-----------------|
D)|-----------------|
A)|--------0------2-|
E)|---3-------------|

pasa y todo
e)|---------0-------|
B)|-----1-----1---1-|
G)|--0--------------|
D)|-------3-----2---|
A)|3----------------|
E)|-----------------|

G
cambia,
e)|---------0-------|
B)|-----1-----1---1-|
G)|--0--------------|
D)|-------3-----2---|
A)|3----------------|
E)|-----------------|

G
Que el sueo
que llevo
en el alma
e)|---------0-------| e)|---------0-------| e)|---------0-------|
B)|-----1-----1---1-| B)|-----1-----1---1-| B)|-----1-----1---1-|
G)|--0--------------| G)|--0--------------| G)|--0--------------|
D)|-------3-----2---| D)|-------3-----2---| D)|-------3-----2---|
A)|3----------------| A)|3----------------| A)|3----------------|
E)|-----------------| E)|-----------------| E)|-----------------|
C
de repente ya no est;
e)|---1----0--------|
B)|---------------3-|
G)|-----------------|
D)|-----------------|
A)|--------0------2-|
E)|---3-------------|
G
Que la sonrisa se ha
marchado
e)|---------0-------| e)|---------0-------| e)|---------0-------|
B)|-----1-----1---1-| B)|-----1-----1---1-| B)|-----1-----1---1-|
G)|--0--------------| G)|--0--------------| G)|--0--------------|
D)|-------3-----2---| D)|-------3-----2---| D)|-------3-----2---|
A)|3----------------| A)|3----------------| A)|3----------------|
E)|-----------------| E)|-----------------| E)|-----------------|
Am G
//mis lagrimas caer--an//
e)|---1----0--I
B)|-----------|
G)|-----------| AQU YA SE TOCAN ACORDES
D)|-----------|
A)|--------0--|
E)|---3-------|
Coro:
C
G
C
Al taller del maestro vengo, pues l me curar
G
Am
Me tomar entre sus brazos y cada herida sanar
G

Las herramientas del maestro, mi alma l remendar


G
Dm
Martillo en mano y mucho fuego, aunque me duela ayudar
Am
F
A conocerlo y entenderlo, a saber que nada merezco,
C
Gm
Amar es ms que un pretexto, es una entrega, es un negar
Dm
Am E
Ms que aquel sentimiento, es la decisin de ama--ar
Am
Al taller del maestro vengo;
E
Ah, ah el sol se pondr
Am
Al taller del maestro vengo;
E
Carpintero mi alma aqu est
Am
Al taller del maestro vengo;
E
No importa el tiempo que all he de estar
Al taller del maestro...
Intro (Solo una vez)
(se sigue la misma secuencia de arriba,
se pueden ubicar por los acordes)
C
G
C
Ay de aquellos das que hizo fro, el sol no apareci;
G
C
Cuando el talento no lo es todo y el silencio vale ms
G
C
Que mil palabras sin sentido; la vida que morir
G
C
Si t no ests aqu conmigo de qu sirve mi cantar,
G
C
Para qu la fama y las estrellas, si el maestro all no est?
G
Am
Para qu decirte que te amo, si contigo no quiero estar?
Comentarios o sugerencias: jonatanmarquez@rocketmail.com
Esto es todo por ahora
Que Dios les bendiga adis...

C
G
C
Ay como me duele estar despierto y no poder cantar
G
C
cmo expresarte sin palabras, me muero si no ests.
G
C
El tiempo pasa y todo cambia, hoy lloro de soledad;
G
C
el sueo que llevo en el alma de repente ya no est;
G
Am - G
que la sonrisa se ha marchado // mis lagrimas caern //
C

G
C
Al taller del maestro vengo, pues El me curar
G
Am
me tomar entre sus brazos y cada herida sanar
G
C
las herramientas del maestro, mi alma El remendar
G
Dm
martillo en mano y mucho fuego, aunque me duela ayudar...
Am
F
a conocerlo y entenderlo, a saber que nada merezco,
C
Dm
amar es ms que un pretexto, es una entrega, es un negar
F
Am - G
ms que aquel sentimiento, es la decisin de amar...
Am
G
Al taller del maestro vengo / ah, ay el sol se pondr
Am
G
Al taller del maestro vengo / carpintero mi alma aqu est
Am
G
Al taller del maestro vengo / no importa el tiempo que all he de estar
INTRO (Sin repetir el 'Bis')
Al taller del maestro vengo...
C
G
C
Ay de aquellos das que hizo frio, el sol no apareci;
G
C
cuando el talento no lo es todo y el silencio vale ms
G
C
que mil palabras sin sentido; la vida que morir
G
C
si tu no ests aqu conmigo de qu sirve mi cantar,
G
C
para qu la fama y las estrellas, si el maestro all no est?
G
Am
para qu decirte que TE AMO, si contigo no quiero estar?
Al taller del maestro vengo ...
// Recuerde que las estrofas se van cantando aconpaadas siempre con el
INTRO hasta el Am
Esta cancin fu la que susurraba cuando estaba en el
hospital luego de sufrir un accidente en mi motocicleta;

espero que les sea de bendicin como lo ha sido para mi.

Dios les bendiga.


T poeta
Intro: Sol - Cadd2 -Sol - Cadd2
Sol
Re
Cuando despert all estabas T,
Mim
Aquella mujer con la que so,
Do
Le vest la piel sus labios bese,
Sol
Y en su corazn all me refugie,
Re
Late el corazn late hoy por vos,
Mim
Y si canto yo canto para T,
Do
Mi vida entera toda te la doy,
Sol--Re
Ya no tengas miedo yo aqu estoy.
(CORO)
Sol
Re
T poeta y T verano
Lam
Mim
Re
El silencio de mi voz diciendo te amo,
Sol
Re
Mi princesa mi primavera,
Do
Sol
Re--Re
Mi ternura y mi amor por vez primera.
ESTROFA II
Sol
Re
Me conoces bien siempre te amare,
Mim
Aunque estemos lejos yo aqu estar,
Do
Ser T poema T razn de ser,
Sol
T sers mi reina mi nica mujer,
Re
T sers mi aliento sers mi edn,
Mim
Mi eterno romance confidente fiel,
Do
Nia consetida amor de mi ser,
Sol--Re
Agua de este ri que yo beber.
otra vez el CORO Y luego ESTE PUENTE
F-C-G-Em-F-C-G-E
Se toca el CORO un tono arriba y Luego esto
La
Mim
Soy un nio enamorado,
Sim
Fa#
Mi
El diseo de T sueo en mi plantado,

Si
MI
Consentida mariposita,
Sim
Fa#
Mi
Prisionera de este amor que no se rinde...
aqu sigue el Piano y para la guitarra
G-D-F-C-G-D-F-C-G
FIN.
Dios les bendiga esta cancin es muy especial para mi
me hace recordar aun mas todas las promesas que le he hecho
a mi regalo mas maravillosamente hermoso que me a dado
mi seor Jess, gracias pequea por todo lo que eres para mi
y todo lo que significas para mi sin T simplemente no podra
seguir eres mi aire mi agua mi vida mi sangre mis fuerzas y
mucho de esta cancin ya te lo haba dich
o antes ya hace
algn tiempo lo recuerdas verdad bien y te lo prometi
y lo cumplir primero Dios bueno ya sabes te ama
tu chinito chinote chino(morenazo) jlcs4fc
Cualquier duda o mejora hganmela saber por favor
que Dios les bendiga me gustara saberla es mi primera
colaboracin a esta sitio vale hasta pronto
el G les recomiendo mucho que lo hagan as y el
Cadd2 del intro tambien se oye bien pues diferente asi ese solo
si quieren pero mas haganle caso al G no solo en el
intro si no que en toda la cancion
digo solo si quieren pero es opcional mas para el Cadd2...
Cadd2
G
e-3
e-3
B-3
B-3
G-0
G-0
D-2
D-0
A-3
A-2
EXX
E-3Eduardo:
eSpErO q lEs gUsTe....
una cancion muy lindap
INTRO:
e--------14-15-10-------15-14-10-------14-15-12-10-------10----b-10-12-----------10-12----------10-12-------------10-12----8--G--------------------------------------------------------------D--------------------------------------------------------------ESTROFA:
G
D
Em
C
e---------------------------------------------------------------------b-----0---0---0---0----3---3---3---3----0---0---0---0----1---1---1---1G-------0-------0--------2-------2--------0-------0--------0-------0--D--0--------0--------0-------0--------2-------2----------------2------A------------------------------------------------------3--------------E----------------------------------------------------------------------

D
Cuando despert all estabas T,
Em
Aquella mujer con la que so,
C
Le vest la piel sus labios bese,
G
Y en su corazn all me refugie,
D
Late el corazn late hoy por vos,
Em
Y si canto yo canto para T,
C
Mi vida entera toda te la doy,
G
Ya no tengas miedo yo aqu estoy.

(CORO)
G
D
T poeta y T verano
Am
Em
D
El silencio de mi voz diciendo te amo,
G
D
Mi princesa mi primavera,
C
G
D
Mi ternura y mi amor por vez primera.
ESTROFA II
G
D
Me conoces bien siempre te amare,
Em
Aunque estemos lejos yo aqu estar,
C
Ser T poeta T razn de ser,
G
T sers mi reina mi nica mujer,
D
T sers mi aliento sers mi edn,
Em
Mi eterno romance confidente fiel,
C
Nia consetida amor de mi ser,
G
D
Agua de este ri que yo beber.
D

D/G A

A
E
T poeta y T verano
Bm
F#m
E
El silencio de mi voz diciendo te amo,
A
E
Mi princesa mi primavera,
D
A
E
Mi ternura y mi amor por vez primera.

A
E
Soy un nio enamorado,
Bm
F#m
E
El diseo de T sueo en mi plantado,
A
E
Consentida mariposita,
D
A
E
Prisionera de este amor que no se rinde...
DIOS LOS BENDIGA A TODOS!!

K seas mi
Cadd9
E|- - - B|- - 3 G|- - - D|- 1 - A|- - 2 E|- - - -

universo
-

Use este ejemplo para tocar Cadd9

Intro: //G,Cadd9//<-se puede repetir mas de una ves


G
Que seas mi universo
Cadd9
G
No quiero darte solo un rato de mi tiempo
Cadd9
Am
D
No quiero separarte un da solamente
G
Que seas mi universo
Cadd9
G
No quiero darte mis palabras como gotas
Cadd9
Am
D
Quiero un diluvio de alabanzas en mi boca
"CORO"
G
Que seas mi universo
Cadd9
G
Que seas todo lo que siento y lo que pienso
Cadd9
Am
Que seas el primer aliento en la maana
D
Y la luz en mi ventana
G
Que seas mi universo
Cadd9
G
Que encierres cada uno de mis pensamientos
Cadd9
Am
Que tu presencia y tu poder sean mi alimento
D

Oh Jesus es mi deseo
G
Que seas mi universo
II ESTROFA
G
Que seas mi universo
Cadd9
G
No quiero darte solo parte de mis aos
Cadd9
Am
D
Te quiero dueo de mi tiempo y de mi espacio
G
Que seas mi universo
Cadd9
G
No quiero hacer mi voluntad quiero agradarte
Cadd9
Am
D
y cada sueo que hay en mi quiero entregarte
"CORO"
G
Que seas mi universo
Cadd9
G
Que seas todo lo que siento y lo que pienso
Cadd9
Am
Que seas el primer aliento en la maana
D
Y la luz en mi ventana
G
Que seas mi universo
Cadd9
G
Que encierres cada uno de mis pensamientos
Cadd9
Am
Que tu presencia y tu poder sean mi alimento
D
Oh Jesus es mi deseo
G

Que seas mi universo


intro
/G/
/Cadd9/
E|-3------------------|------------------|
A|--------------------|-----3------------|
D|-----0--------------|---------0--------|
G|---0---2-2--4--2--0-|-------0---2-2-4--|
B|--------------------|------------------|
e|--------------------|------------------|
/G/

E|-3------------------|-----------------------------|
A|--------------------|----3-----3--3----3----0-----|
D|-----0--------------|-----------------------------|
G|---0---2-2--4--2--0-|-----------------------2--2--|
B|--------------------|------0h1h3--1----0------3---|
e|--------------------|-----------------------------|
G
que seas mi universo
E|-3------------------|
A|--------------------|
D|-----0--------------|
G|---0---2-2--4--2--0-|
B|--------------------|
e|--------------------|
Cadd9
no quiero darte solo un rato de mi tiempo
E|------------------|
A|-----3------------|
D|---------0--------|
G|-------0---2-2-4--|
B|------------------|
e|------------------|
G
de mi tiempo
E|-3------------------|
A|--------------------|
D|-----0--------------|
G|---0---2-2--4--2--0-|
B|--------------------|
e|--------------------|
Am7
no quiero separarme un dia solamente
E|-0--------|
A|-0--------|
D|-0--------|
G|-5--------|
B|-5--------|
e|-0--------|

E|---------------|
A|--5-------5----|
D|---4-----4-----|
G|----0---0------|
B|------2--------|
e|---------------|

G
que seas mi universo
E|-3------------------|
A|--------------------|
D|-----0--------------|
G|---0---2-2--4--2--0-|
B|--------------------|
e|--------------------|
Cadd9
no quiero darte mis palabras como gotas

E|------------------|
A|-----3------------|
D|---------0--------|
G|-------0---2-2-4--|
B|------------------|
e|------------------|
G
como gotas
E|-3------------------|
A|--------------------|
D|-----0--------------|
G|---0---2-2--4--2--0-|
B|--------------------|
e|--------------------|

quiero un

Am7
Dsus4
diluvio de alabanzas en mi boca

E|-0--------|
A|-0--------|
D|-0--------|
G|-5--------|
B|-5--------|
e|-0--------|
C
Dsus4
G
Que seas mi universo
Cadd9
G
Que seas todo lo que siento y lo que pienso
Cadd9
Am7
Que seas el primer aliento en la maana
Dsus4
Y la luz en mi ventana
G
Que seas mi universo
Cadd9
G
Que encierres cada uno de mis pensamientos
Cadd9
Am7
Que tu presencia y tu poder sean mi alimento
Dsus4
Oh Jesus es mi deseo
G
Que seas mi universo
Cadd9
G
No quiero darte solo parte de mis aos
Cadd9
Am7
Dsus4
Te quiero dueo de mi tiempo y de mi espacio
G
Que seas mi universo

Cadd9
G
No quiero hacer mi voluntad quiero agradarte
Cadd9
Am7
y cada sueo que hay en mi quiero entregarte
E|---------------|
A|--5-------5----|
D|---4-----4-----|
G|----0---0------|
B|------2--------|
e|---------------|
C
Dsus4
G
Que seas mi universo
Cadd9
G
Que seas todo lo que siento y lo que pienso
Cadd9
Am7
Que seas el primer aliento en la maana
Dsus4
Y la luz en mi ventana
G
Que seas mi universo
Cadd9
G
Que encierres cada uno de mis pensamientos
Cadd9
Am7
Que tu presencia y tu poder sean mi alimento
Dsus4
Oh Jesus es mi deseo
G
Que seas mi universo
/G/
/Cadd9/
E|-3------------------|------------------|
A|--------------------|-----3------------|
D|-----0--------------|---------0--------|
G|---0---2-2--4--2--0-|-------0---2-2-4--|
B|--------------------|------------------|
e|--------------------|------------------|
/G/
G
E|-3------------------|--------------------------------|
A|--------------------|----3-----3--3----3------0------|
D|-----0--------------|--------------------------------|
G|---0---2-2--4--2--0-|-------------------------2---2--|
B|--------------------|------0h1h3--1----0h1p0----3----|
e|--------------------|--------------------------------|
notas utilisadas:
/Cadd9/
/Dsus4/
/Am7/
/G/
/C/
E|---0--------||--0--------||--0-------||----3------||--0-------|
A|---3--------||--0--------||--0-------||----2------||--3-------|

D|---2--------||--0--------||--2-------||----0------||--2-------|
G|---0--------||--2--------||--0-------||----0------||--0-------|
B|---3--------||--3--------||--1-------||----3------||--1-------|
e|---3--------||--0--------||--0-------||----3------||--0-------|
un saludo para los cabros de "K-iros" PaTaN BasS que pronto vamos

tener nuestras transcripciones aki