Está en la página 1de 13

RATA BLANCA

LA LEYENDA DEL ADA Y EL MAGO


MAGOS ESPADAS Y ROSAS
TablEdited by Luis Torres
Tipo de tono : E A D G B e
INTRO:
|--------------------------------|--------------------------------|
|--------------------------------|--------------------------------|
|--------------------------------|--------------------------------|
|--------------------------------|--------------------------------|
|--------------------------------|--------0-----------------------|
|3-0-0---0-------3-0-0---0-------|3-2-0-----3-2---3-0-0---0-------|
|--------------------------------|--------------------------------|
|--------------------------------|--------------------------------|
|--------------------------------|--------------------------------|
|--------------------------------|--------------------------------|
|--------------------------------|--------0-----------------------|
|3-0-0---0-------3-0-0---0-------|3-2-0-----3-2---3-0-0---0-------|
|--------------------------------|--------------------------------|
|--------------------------------|--------------------------------|
|--------------------------------|--------------------------------|
|--------------------------------|--------------------------------|
|--------------------------------|--------0-----------------------|
|3-0-0---0-------3-0-0---0-------|3-2-0-----3-2---3-0-0---0-------|
|--------------------------------||--------------------------------|
|--------------------------------||--------------------------------|
|--------------------------------||--------------------------------|
|--------------------------------||----------------0---------------|
|--------------------------------||--------0---------3-2---0-------|
|3-0-0---0-------3-0-0---0-------||3-2-0-----3-2-------------3-2---|
VERSO 1:
E
B

D
E
A
Cuenta la historia que un mago que un dia en su bosque encantado llor.

D
C
Porque a pesar de su magia no habia podido encontrar el amor

D
E
La luna su unica amiga le daba fuerzas para soportar,

D
C
Todo el dolor que senta por culpa de su tan larga soledad

CORO 1:
C

E
D
Y es que sabia muy bien que es existir

F#

G#

A
E

C-B

A#
B
nunca debia salir de su destino

A
D
Si alguien te tiene que hablar ya lo sabras

F#
Solo tendrs que saber reconocerlo

G
B

|--------------------------------|--------------------------------|
|--------------------------------|--------------------------------|
|--------------------------------|--------------------------------|
|--------------------------------|--------------------------------|
|--------------------------------|--------0-----------------------|
|3-0-0---0-------3-0-0---0-------|3-2-0-----3-2---3-0-0---0-------|
|--------------------------------|--------------------------------|
|--------------------------------|--------------------------------|
|--------------------------------|--------------------------------|
|--------------------------------|--------------------------------|
|--------------------------------|--------0-----------------------|
|3-0-0---0-------3-0-0---0-------|3-2-0-----3-2---3-0-0---0-------|
|--------------------------------|--------------------------------|
|--------------------------------|--------------------------------|
|--------------------------------|--------------------------------|
|--------------------------------|--------------------------------|
|--------------------------------|--------0-----------------------|
|3-0-0---0-------3-0-0---0-------|3-2-0-----3-2---3-0-0---0-------|
|--------------------------------||--------------------------------|
|--------------------------------||--------------------------------|
|--------------------------------||--------------------------------|
|--------------------------------||----------------0---------------|
|--------------------------------||--------0---------3-2---0-------|
|3-0-0---0-------3-0-0---0-------||3-2-0-----3-2-------------3-2---|
VERSO 2:
E
D
Fue en una tarde que el mago
E
paseando en el bosque la vista cruz

G
D
con la ms dulce mirada
C
que en toda su vida jams conoci.

C-B

E
D
Desde ese mismo momento
E
el hada y el mago quisieron estar

G
D
slo los dos en el bosque
C
amndose siempre y en todo lugar.

CORO 2:
C
E
D
F#
Y el mal que siempre existi, no soport

G#

A
A#
B
ver tanta felicidad entre dos seres.
E
A
D
G
Y con su odio atac, hasta que el hada cayo
C
F#
B
en ese sueo fatal de los seres.
Solo:
TablEdited by Luis Torres
Tipo de comps: 4/4
|----7---3---0-----------------0-|--0-2-3-2---0-|
|17------------0----------0--4---|4---------4---|
|----------------0------0--------|--------------|
|------------------2--4----------|--------------|
|--------------------------------|--------------|
|--------------------------------|--------------|
|12--7--3--0-----------------0-|---0--2--3--2-----0-|
|------------0----------0--4---|4--------------4----|
|--------------0------0--------|--------------------|
|----------------2--4----------|--------------------|
|------------------------------|--------------------|
|------------------------------|--------------------|
nota: las partes en que los numeros estan separados por un guion '-' son
las partes
rapidas
|14-12-11-12-11-12-----14-12-11-12-11-12----15-14-12-14-12-14----15-1412-14-12-14-|
|---------------------------------------------------------------------------------|
|---------------------------------------------------------------------------------|
|---------------------------------------------------------------------------------|
|---------------------------------------------------------------------------------|
|---------------------------------------------------------------------------------|
|-17-15-14-15-14-15-----17-15-14-15-14-15----20-17-15-17-15-17--19|
|-----------------------------------------------------------------|

|-----------------------------------------------------------------|
|-----------------------------------------------------------------|
|-----------------------------------------------------------------|
|-----------------------------------------------------------------|
|20-17-15-17-15-17-----17-15-14-15-14-15----19-17-15-17-15-17-----15-1412-14-12-14-|
|----------------------------------------------------------------------------------|
|----------------------------------------------------------------------------------|
|----------------------------------------------------------------------------------|
|----------------------------------------------------------------------------------|
|----------------------------------------------------------------------------------|
|-15-14-12-14-12-14-----14-12-11-12-11-12-12|
|-------------------------------------------|
|-------------------------------------------|
|-------------------------------------------|
|-------------------------------------------|
|-------------------------------------------|
|14-12-11-12-11-12----14-12-11-12-11-12-----15-14-12-14-12-14----15-1412-14-12-14-|
|---------------------------------------------------------------------------------|
|---------------------------------------------------------------------------------|
|---------------------------------------------------------------------------------|
|---------------------------------------------------------------------------------|
|---------------------------------------------------------------------------------|
|-17-15-14-15-14-15-----17-15-14-15-14-15----20-17-15-17-15-17--19|
|-----------------------------------------------------------------|
|-----------------------------------------------------------------|
|-----------------------------------------------------------------|
|-----------------------------------------------------------------|
|-----------------------------------------------------------------|
|20-17-15-17-15-17----17-15-14-15-14-15----19-17-15-17-15-17-----15-1412-14-12-14-|
|---------------------------------------------------------------------------------|
|---------------------------------------------------------------------------------|
|---------------------------------------------------------------------------------|
|---------------------------------------------------------------------------------|
|---------------------------------------------------------------------------------|

|-15-14-12-14-12-14-----14-12-11-12-11-12---12|
|-------------------------------------------17|
|---------------------------------------------|
|---------------------------------------------|
|---------------------------------------------|
|---------------------------------------------|
|12----14----15----15----14-12|14------12-14-15-----14-15-17-|
|-----------------------------|------------------------------|
|-----------------------------|------------------------------|
|-----------------------------|------------------------------|
|-----------------------------|------------------------------|
|-----------------------------|------------------------------|
|-14-15-17-----14-15-17-----20-----19-17-|19-----20----19----17|
|----------------------------------------|---------------------|
|----------------------------------------|---------------------|
|----------------------------------------|---------------------|
|----------------------------------------|---------------------|
|----------------------------------------|---------------------|
|12----14------15------15------14-12|14-------12-14-15------14-15-17|
|-----------------------------------|-------------------------------|
|-----------------------------------|-------------------------------|
|-----------------------------------|-------------------------------|
|-----------------------------------|-------------------------------|
|-----------------------------------|-------------------------------|
|14-15-17------14-15-17----20-----19-17|19------20----19----17|
|--------------------------------------|----------------------|
|--------------------------------------|----------------------|
|--------------------------------------|----------------------|
|--------------------------------------|----------------------|
|--------------------------------------|----------------------|
|15----14----12----14-----12|18-15-12----14-15-14----12|14----11|
|---------------------------|--------------------------|--------|
|---------------------------|--------------------------|--------|
|---------------------------|--------------------------|--------|
|---------------------------|--------------------------|--------|
|---------------------------|--------------------------|--------|
|21----14|14----9--14-17-21-17-21-17-----9-14-17-14-17-14|
|--------|-----------------------------------------------|
|--------|-----------------------------------------------|
|--------|-----------------------------------------------|
|--------|-----------------------------------------------|
|--------|-----------------------------------------------|
|5-9-14-9-14-9----2-5-9-5-9-5--2------2|
|--------------------------------------|
|--------------------------------------|
|--------------------------------------|
|--------------------------------------|
|--------------------------------------|

|5-9-14-9-5-2----2-5-9-14-5-9----14-17-9-14-5-9-|14-9-14-17-19-17--14---21-17-14----9-5-9-|
|-----------------------------------------------|-----------------------------------------|
|-----------------------------------------------|-----------------------------------------|
|-----------------------------------------------|-----------------------------------------|
|-----------------------------------------------|-----------------------------------------|
|-----------------------------------------------|-----------------------------------------|
|14-----12----10-9-|10-----19-16-12-----7-4-7-|10-----10-----9-7-|9-----14--16--17|
|------------------|--------------------------|------------------|----------------|
|------------------|--------------------------|------------------|----------------|
|------------------|--------------------------|------------------|----------------|
|------------------|--------------------------|------------------|----------------|
|------------------|--------------------------|------------------|----------------|
|21-----21-17-14-17-14-9----14-17-14-9-5-9-|5-2-5-9-5-2----5-9-2---23---21----24|
|------------------------------------------|------------------------------------|
|------------------------------------------|------------------------------------|
|------------------------------------------|------------------------------------|
|------------------------------------------|------------------------------------|
|------------------------------------------|------------------------------------|
|21-----17-14-17-21-17-16----14-17-21-17-14-12|
|---------------------------------------------|
|---------------------------------------------|
|---------------------------------------------|
|---------------------------------------------|
|---------------------------------------------|
|14-17-21-17-14-17----14-21-17-16-14-12---14-17-21-17-16-14----12-9-5-914-12|
|---------------------------------------------------------------------------|
|---------------------------------------------------------------------------|
|---------------------------------------------------------------------------|

|---------------------------------------------------------------------------|
|---------------------------------------------------------------------------|
|9-5-9-14-12-9----5-4-9-5-14-9----5-9-4-5-12-14----9-5-9-14-9-5-|
|---------------------------------------------------------------|
|---------------------------------------------------------------|
|---------------------------------------------------------------|
|---------------------------------------------------------------|
|---------------------------------------------------------------|
|4-2-0-2-5-2----5-9-4-9-2-0-----0-5-4-2-5----9-5-2---2---|
|------------------------------2-------------------2-----|
|------------------------------------------------------2-|
|--------------------------------------------------------|
|--------------------------------------------------------|
|--------------------------------------------------------|
|--2-5-2--------2-0-------------2-0-------------------2-5-9-|
|2-------2----------3-2---2---------2-0-------------2-------|
|----------2------------2---------------2-1-------2---------|
|-----------------------------------------------4-----------|
|-----------------------------------------------------------|
|-----------------------------------------------------------|
|5-9-14-9-5-9----14-17-21----21----17|16--16--16--16|-14-9-14-5-14-9----1-45-14-9-14-5-|
|------------------------------------|--------------|----------------------------------|
|------------------------------------|--------------|----------------------------------|
|------------------------------------|--------------|----------------------------------|
|------------------------------------|--------------|----------------------------------|
|------------------------------------|--------------|----------------------------------|
|9-5-9-2-9-5----9-2-9-5-9-2-----16-13-16-9-16-13----16-9-16-13-16-9-|
|-------------------------------------------------------------------|
|-------------------------------------------------------------------|
|-------------------------------------------------------------------|
|-------------------------------------------------------------------|
|-------------------------------------------------------------------|
|2-9-14-5-14-9-----14-5-14-9-14-5-----17-14-17-9-17-14-----17-9-17-14-179-|
|-------------------------------------------------------------------------|
|-------------------------------------------------------------------------|
|-------------------------------------------------------------------------|
|-------------------------------------------------------------------------|

|-------------------------------------------------------------------------|
|7-7-12-4-12-7-----12-4-12-7-12-4-----7-12-16-7-16-12-----16-7-16-12-167-|
|------------------------------------------------------------------------|
|------------------------------------------------------------------------|
|------------------------------------------------------------------------|
|------------------------------------------------------------------------|
|------------------------------------------------------------------------|
|9-9-14-5-14-9-----14-5-14-9-14-5-----14-9-14-5-14-9-----14-5-14-9-14-5-|
|-----------------------------------------------------------------------|
|-----------------------------------------------------------------------|
|-----------------------------------------------------------------------|
|-----------------------------------------------------------------------|
|-----------------------------------------------------------------------|
|14-10-14-7-14-10-----14-7-14-10-14-7-----8-11-14-8-14-11-----14-8-14-1114-8-|
|----------------------------------------------------------------------------|
|----------------------------------------------------------------------------|
|----------------------------------------------------------------------------|
|----------------------------------------------------------------------------|
|----------------------------------------------------------------------------|
|7-12-16-7-16-12-----16-7-16-12-16-7-----17-13-17-9-17-13-----17-9-17-1317-9-|
|----------------------------------------------------------------------------|
|----------------------------------------------------------------------------|
|----------------------------------------------------------------------------|
|----------------------------------------------------------------------------|
|----------------------------------------------------------------------------|
|2-14-17-9-17-14----14-7-14-10-14-7-----14-9-14-5-14-9-----14-7-14-10-147-|---4---|
|-------------------------------------------------------------------------|-------|
|-------------------------------------------------------------------------|-------|
|-------------------------------------------------------------------------|-------|

|-------------------------------------------------------------------------|-------|
|-------------------------------------------------------------------------|-------|
|9-14-17-14-9-14----17-14-9-14-9-14----17-14-9-5-9-14----9-5-9-14-17-14|
|----------------------------------------------------------------------|
|----------------------------------------------------------------------|
|----------------------------------------------------------------------|
|----------------------------------------------------------------------|
|----------------------------------------------------------------------|
|4-14-17-14-9-14---21----17---16-|-16---16---16-|-5-----16---17-|
|--------------------------------|--------------|---------------|
|--------------------------------|--------------|---------------|
|--------------------------------|--------------|---------------|
|--------------------------------|--------------|---------------|
|--------------------------------|--------------|---------------|
|6-----16---17|---------0-3-7----12-7-3----0---0-|--7--|
|-------------|----0-------------------------0---|--7--|
|-------------|--0-------------------------------|-----|
|-------------|2---------------------------------|-----|
|-------------|----------------------------------|-----|
|-------------|----------------------------------|-----|
|--7-3-7-12-7----15-12-7-3-7-----12-7-3-7-12-15-----12-7-3-7-12-15|
|17---------------------------------------------------------------|
|-----------------------------------------------------------------|
|-----------------------------------------------------------------|
|-----------------------------------------------------------------|
|-----------------------------------------------------------------|
|12-7-3-7-12-15----12-7-12-15-19-15----12-7-12-15-19-24-----19-15-12-712-|
|------------------------------------------------------------------------|
|------------------------------------------------------------------------|
|------------------------------------------------------------------------|
|------------------------------------------------------------------------|
|------------------------------------------------------------------------|
|-15-12-15-19-15-12----8-7-3-7-12-15----12-7-3-0-3-7-----3-0-------0-|
|------------------------------------------------------------0---0---|
|--------------------------------------------------------------0-----|
|--------------------------------------------------------------------|
|--------------------------------------------------------------------|
|--------------------------------------------------------------------|

|0-3-7-3-0--------------------------------------------0-------|----------0-7-|

|----------0--------0-------0-----3-0---------------0---0-----|--------------|
|-----------------0---0---0-----------0---0-------0-------0---|--------------|
|-----------------------2---------------2---2---------------2-|4-----2-------|
|-------------------------------------------------------------|--------------|
|-------------------------------------------------------------|--------------|
|-12--11---7--8-7-5-3-2-3---0-|12---14---15---17---19---20|
|-----------------------------|---------------------------|
|-----------------------------|---------------------------|
|-----------------------------|---------------------------|
|-----------------------------|---------------------------|
|-----------------------------|---------------------------|
|24-----22|
|---------|
|---------|
|---------|
|---------|
|---------|
VERSO 3:
E
D
En su castillo pasaba las noches
E
el mago buscando el poder

G
D
C
que devolviera su hada, su amor, su mirada tan dulce de ayer.
E
D
Y no par desde entonces
E
buscando la forma de recuperar

G
D
a la mujer que aquel da
C
E
en medio del bosque por fin pudo amar.
CORO 3:
C
E
D
Y hoy sabe que es el amor y que tendr

F#

A
A#
B
fuerzas para soportar aquel conjuro
E

G#

C-B

sabe que un da ver su dulce hada llegar.


C
F#
B
Y para siempre con el se quedaraaa ....
SOLO 2:
|------------------|--------0------|0-2-3-2-3-5-----3-2-3-0-2-3------2-35-3-2-3-----0-2-3-2-3-5|
|------------------|---------------|-----------------------------------------------------------|
|------------------|---------------|-----------------------------------------------------------|
|2-----------------|---------------|-----------------------------------------------------------|
|------------------|---------------|-----------------------------------------------------------|
|------------------|---------------|-----------------------------------------------------------|
|3-2-0---0-2------0--------------------|---------------------------------------------------------|
|------3------------3-1-3-1-0-------1--|---0-1-0---0------------0-1-3-------0-1-0---1-0----------|
|--------------------------------------|-2-------2----------0-2-------2-----------2------------2-|
|--------------------------------------|---------------------------------------------------------|
|--------------------------------------|---------------------------------------------------------|
|--------------------------------------|---------------------------------------------------------|
|-------17------|-3-----3-2-0-------0-2------3-5-2-3-2-0--|-2---0-2-3-0-----2-3-------0-----3----2------3|
|---------------|-----------------------------------------|---3-----------------3-1-3--------------------|
|---------------|-----------------------------------------|----------------------------------------------|
|---------------|-----------------------------------------|----------------------------------------------|
|---------------|-----------------------------------------|----------------------------------------------|
|---------------|-----------------------------------------|----------------------------------------------|
|-3-----2-3-2-3-----0-------5-----|-3-----2-3-2-3-----0------12----14-|
|---------------------------------|-----------------------------------|
|---------------------------------|-----------------------------------|
|---------------------------------|-----------------------------------|
|---------------------------------|-----------------------------------|
|---------------------------------|-----------------------------------|
|15-17-15-14-12-14------15-14-12-10-12-15-----14-12-10-15-14-12------108-10-14-12-10-|
|------------------------------------------------------------------------------------|

|------------------------------------------------------------------------------------|
|------------------------------------------------------------------------------------|
|------------------------------------------------------------------------------------|
|------------------------------------------------------------------------------------|
|-12-14-12-10-8-10------12-15-14-12-10-8------15-14-12-10-8-10-----12-1212-12-12-12-|
|-----------------------------------------------------------------------------------|
|-----------------------------------------------------------------------------------|
|-----------------------------------------------------------------------------------|
|-----------------------------------------------------------------------------------|
|-----------------------------------------------------------------------------------|
|-14-14-14-14-14-14------15-15-15-15-15-15-----17-17-17-17-17-17----15|
|---------------------------------------------------------------------|
|---------------------------------------------------------------------|
|---------------------------------------------------------------------|
|---------------------------------------------------------------------|
|---------------------------------------------------------------------|
|--12--|-14-15-14-----14-12-14-12-15-14------10-12-14-12-8-10----12-|
|------|------------------------------------------------------------|
|------|------------------------------------------------------------|
|------|------------------------------------------------------------|
|------|------------------------------------------------------------|
|------|------------------------------------------------------------|
|-------------------------------------------0---------0-2-0-2-3-|-2-3-53-5-7------5-7-8-7-8-10------8-10-12-10-12-14------12-14-15-14-15-17|
|---------------------0---0-1-----0-1-3-1-3---------3-----------|--------------------------------------------------------------------------|
|-----0---0-2-----0-2---2---------------------------------------|--------------------------------------------------------------------------|
|-2-4---4-------------------------------------------------------|--------------------------------------------------------------------------|
|---------------------------------------------------------------|--------------------------------------------------------------------------|
|---------------------------------------------------------------|--------------------------------------------------------------------------|
|15-17-19-17-19-20------19-17-19-20-19-20-------22-20-22-24-22-20-----22-24-22-24-14-24-|-24-14-24-14-15-17------19----12-|
|---------------------------------------------------------------------------------------|------------------------------12-|
|---------------------------------------------------------------------------------------|-------------------------------9-|
|---------------------------------------------------------------------------------------|---------------------------------|

|---------------------------------------------------------------------------------------|---------------------------------|
|---------------------------------------------------------------------------------------|---------------------------------|
esta cancion es algo complicada sobre todo los solos pero todo
es cuestion que ler agarres el truco.
ponle muchas ganas y paciencia y veras que con mucha practica
l vas a sacar.
Las notas del coro son las que ustedes tienen solo que yo arpegeo y hago
unos arreglos en la cancion ya se lo pasar cuando lo tabule.
Durante el solo la otra guitarra hace otra cosa que se la pasar cuando
lo tabule.
es una colaboracion de LUIS TORRES GUTIERREZ
para la gente de 'ROCKEROS'
porque me parece que su pagina es una de las mejores que existen
en la red sobre tablaturas, si quieren otros solos o canciones
escribanme a mi correo pidiendomelas les pasar todas las de MetallicA
porque son las que tengo.
Les meresco un favor pasenme todos los midis que tengan de rata blanca
y de heroes del silencio a cambio de las tablaturas que les he colaborado
y colaborar si es que quieren, gracias.

También podría gustarte