Está en la página 1de 8

Solo por un beso vers 1

Aqu va esta cancin, espero que les guste:


e
B
G
D
A
E

-----------------------|
----3-3-3-3-3-3-3-6-3-5|
----0------------------|
-----------------------|
3----------------------|
-----------------------|

e
B
G
D
A
E

-----------------------|
-----------------------|
----2-2-2-2-2-2-2-5-2-4|
----0------------------|
-----------------------|
3----------------------|

e
B
G
D
A
E

15--0--13--0--12-0--10--0---15--0--13--0--12-0--10--0
--------------------------------------------------------------------------------------------------------14-14--14-1414-14--12-12---14-14--14-1414-14--12-12
---------------------------------------------------------------------------------------------------------

e
B
G
D
A
E

15--0--13--0--12-0--10--0|
-------------------------|
-------------------------|
14-14--14-1414-14--12-12|
-------------------------|
-------------------------|

e
B
G
D
A
E

-----0-----|
----1-1----|
---0---0---|
--2-----2--|
-3-------3-|
3---------3|

Hay una mujer!


e
B
G
D
A
E

--------------------------7-8--8-8-8-8|
----------------------8-10-----5-5-5-5|
----------------7-9-10----------------|
----------7-9-10----------------------|
----7-8-10----------------------------|
8-10----------------------------------|

Que domina mis sentidos con slo tocar mi piel


e
B
G
D
A
E

--10--8--7--5--3--1--3----5|
---------------------------|
---------------------------|
12--10--9--7--5--3--5--7-7-|
---------------------------|
---------------------------|

Y Cmo a m tambin!
e
B
G
D
A
E

--------------------|
--------------------|
0-0-0-0-0-0-0-3-0-2|
--------------------|
--------------------|
1-------------------|

A otro hombre esto le puede suceder.


e
B
G
D
A
E

----------------------------------------------------|
---------------------------------------0-0-0-0-0-0-0|
----2-2-2-2-2-2-2-5-2-4-4-4-4-4-------0-0-0-3-0-0-0-|
----0--------------------------------3--------------|
------------------------------------5---------------|
3----------------------------------3----------------|

C
Que slo por un beso,
A 0-2-3-3
Am
Se puede enamorar,
e --12--10--8--7--5|
B -----------------|
G -----------------|
D 13--12--10--9--7-|

Dm
Sin necesidad de hablarse
e --12--10|
B --------|
G --------|
D 13--12--|
F
Slo los labios rozarse,
e --12--10|
B --------|
G --------|
D 13--12--|
F
G
Cupido los flechar.
e --15--13--12--10--8|
B -------------------|
G -------------------|
D 16--14--13--12--10-|
C
Y slo por un beso,
A 0-2-3-0-2-3-3-0-2-3|
E
B
G
D
A
E

------------|
---------0-1|
------0-2---|
-0-2-3------|
3-----------|
------------|

Am
Con ella soy feliz,

e
B
G
D
A

-5--3--1---------|
----------5--3--1|
-----------------|
7--5--3----------|
---------7--5--3-|

Dm
Slo por un besito,
e -----|
B -5--3|
G -----|
D -----|
A 7--5-|
F
Me llev al infinito
e -----|
B -5--3|
G -----|
D -----|
A 7--5-|
F
G
Y ni siquiera la conozco bien.
e --15--13--12--10---8--7--5----10-11-12|
B --------------------------------------|
G --------------------------------------|
D 16--14--13--12--10---9--7-----12-13-13|
Am
Un beso significa amistad, sexo y amor
F
En cualquier parte del mundo no importa la religin
Dm
F
Por un beso de su boca voy al cielo y hablo con dios
Dm
G
C C C
Alcanzo las estrellas de emocin.
C
Su boca es tan sensual
e 15-15-15-15--13-13-13-13--12-12-12-12--10-10-10-10--8-8-8-8|
G
Me cautiva Y me excita no me canso de besar
e 15-15-15-15--13-13-13-13--12-12-12-12--10-10-10-10--8-8-8-8|
F
Su lengua es mi debilidad
e 15-15-15-15--13-13-13--12-12-12--10-10-10--8-8|
G
Ella sabe los truquitos dganme si hay alguien mas
e 15-15-15-15--13-13-13--12-12-12--10-10-10--8-8|
C
Que slo por un beso,
A 1-1-1-1-1-4-1-3
Am
Se puede enamorar,
D 0-0-0-0-0-3-0-2

Dm
Sin necesidad de hablarse
e -----|

B
G
D
A

-5--3|
-----|
-----|
7--5-|

F
Slo los labios rozarse,
e -----|
B -5--3|
G -----|
D -----|
A 7--5-|
F
G
Cupido los flechar.
e --15--13--12--10--8|
B -------------------|
G -------------------|
D 16--14--13--12--10-|
C
Y slo por un beso,
E 0-2-3-3-3-3-0-2-3|
Am
Con ella soy feliz,
E -----------|
B -----------|
G ------0-0-0|
D -0-2-3-----|
A 3----------|
Dm
Slo por un besito,
e -----|
B -5--3|
G -----|
D -----|
A 7--5-|

F
Me llev al infinito
e -----|
B -5--3|
G -----|
D -----|
A 7--5-|
F
Y
e
B
G
D

G
ni siquiera la conozco bien.
--15--13--12--10--8|
-------------------|
-------------------|
16--14--13--12--10-|

Am
Un beso significa amistad, sexo y amor
F
En cualquier parte del mundo no importa la religin
Dm
F
Por un beso de su boca voy al cielo y hablo con dios
Dm
G
Alcanzo las estrellas de emocin.
e -----8-8--------------3-3--7/8-7-7|

B 5-5------6-6--5/6-5-5-------------|
e -----8-8--------------3-3--10/12-10|
B 5-5------6-6--5/6-5-5--------------|
e
B
G
D
A
E

--0-1|
--1-1|
--0-0|
-2---|
3----|
-----|

e
B
G
D
A
E

-7--5--3---1------------|
--------------5--3--1--0|
------------------------|
9--7--5---3-------------|
-------------7--5--3--2-|
------------------------|

e
B
G
D
A
E

--8--7--5-----10---8--7---10---8--7----5--3--1------|
------------------------------------------------5--3|
----------------------------------------------------|
10--9--7----12---10--9--12---10--9----7--5--3-------|
-----------------------------------------------7--5-|
----------------------------------------------------|

e
B
G
D
A
E

----7---5----7----5|
-------------------|
-------------------|
9-9--7-7--9-9--7-7-|
-------------------|
-------------------|

e
B
G
D
A
E

-----p0----------------|
-----------------------|
-----------------------|
------------------2-2-2|
3-3-3----3-3-3---------|
-----------------------|

e
B
G
D
A
E

----7---5----7----5----0-0-12-0-0-12-0---0-0-12-0|
-------------------------------------------------|
-------------------------------------------------|
9-9--7-7--9-9--7-7-------------------------------|
-------------------------------------------------|
-------------------------------------------------|

e
B
G
D
A
E

8-7--------------------------|
---10-8----------------------|
-------10-9-7----------------|
-------------10-9-7----------|
-------------------10-8-7----|
-------------------------10-8|

C
Hay una mujer!
A 0-2-3-0-2-3-0-2-3|

G
Que domina mis sentidos con slo tocar mi piel.
E 15-15-15-15--13-13-13-13--12-12-12-12--10-10-10-10--8-8-8-8|

C
Y cmo a m tambin.
A 0-2-3-0-2-3-0-2-3|
G
A otro hombre esto le puede suceder.
E 15-15-15-15--13-13-13-13--12-12-12-12--10-10-10-10--8-8-8-8|
C
Que slo por un beso.
Rumba, yeyeyeye, hehehehe, uhouhouho, yeheyehe.
Am
Un beso significa amistad, sexo y amor
F
En cualquier parte del mundo no importa la religin
Dm
F
Por un beso de su boca voy al cielo y hablo con dios
Dm
G
Alcanzo las estrellas de emocin.

Solo por un beso vers 2


e|-------------------------0----------------------------------|
B|-------3-3-3-3-3-3-3/6-3----------------------------0-------|
G|-----0--------------------------2-2-2-2-2-2-2-2/5-2---------|
D|------------------------------0-----------------------------|
A|---3--------------------------------------------------------|
E|----------------------------3-------------------------------|
e|--15p0-0----13p0-0---12p0-0---10p0-0--------|------0--------|
B|-------------------------------------------|-----1-1-------|
G|-------------------9--------9----------(3x)|----0---0------|
D|---------14--------------------------------|---2-----2-----|
A|--------------------------------------------|--3-------3----|
E|--------------------------------------------|-3---------3---|
Hay una mujer!
e|---------------------------------7-8------0h8p0h8p0h8p0h8p0h8p0h8p0----|
B|----------------------------8-10------65-------------------------------|
G|---------------------7-910---------------------------------------------|
D|--------------7-910----------------------------------------------------|
A|-------7-810-----------------------------------------------------------|
E|--810------------------------------------------------------------------|
Que domina mis sentidos con solo tocar mi piel
e|----10p0----8p0---7p0---5p0---3p0---1p0---3p0-----5-------|
B|----------------------------------------------------------|
G|----------------------------------------------------------|
D|--12--/--10--/--9--/--7--/--5--/--3--/--5--/--7-7---------|
A|----------------------------------------------------------|

E|----------------------------------------------------------|
Y como a m tambin
e|-------------------------|
B|-------------------------|
G|-------------------------|
D|------5-5-5-5/8-5-7------|
A|----3--------------------|
E|--1----------------------|
a otro hombre esto le puede sucerder

|
===========Tremulo==============|
e|-----------------------------------------------------------------------|
B|---------------------0-0-0-0-0------0----0-0-0---0-0-0---0-0-0---00-0--|
G|------2-2-2-2-2/-5-2---------------0---0-------0-------0------3-------0|
D|----0----------------------------3-------------------------------------|
A|--------------------------------5--------------------------------------|
E|--3----------------------------3---------------------------------------|
C
Que solo por un beso
Am
Se puede enamorar
Dm
Sin necesidad de hablarse
F
Solo los labios rozarse
G
Cupido los flechara
Y solo por un beso
Con ella soy feliz
Tan solo con un besito
Me llevo al infinito
Y ni siquiera la conozco bien
Am
Un beso significa amistad, sexo y amor
F
En cualquier parte del mundo no importa la religin
Dm
F
Por un beso de su boca voy al cielo y hablo con dios
Dm
G
Alcanzo las estrellas de emocin
C
Su boca es tan sensual
G
Me cautiva Y me excita no me canso de besar
F
Su lengua es mi debilidad
G
Ella sabe los truquitos dganme si hay alguien mas

Que solo por un beso


Se puede enamorar
Sin necesidad de hablarse solo los labios rozarse
cupido los flechara
Y solo por un beso
Con ella soy feliz
Tan solo con un besito me llevo al infinito
y ni siquiera la conozco bien
Un beso significa
Amistad, sexo y amor
En cualquier parte del mundo no importa la religin
Por un beso de tu boca boy al cielo y hablo con dios
Alcanzo las estrellas de emocin