Está en la página 1de 3

09/05/2011

Rodolfo Ruiz, Quiero ser tu sombra: T…

Letras y Acordes para Gutiarra de Rodolfo Ruiz: Quiero ser tu sombra (Guitar Tab)

 
   
 
  calidad:  
 

calidad:

calidad:
 
  calidad:  
 

Rodolfo Ruiz Quiero ser tu sombra (TAB)

 

Enviado por Guzmán

 

AUTOR: Z.alcayaga-cuatromanos ALBUM: desconocido

 

rruz0011

 

LAm

SOL

DO

desconocido   rruz0011   LAm SOL DO   Estos son los acordes que nuestro robot identificó
desconocido   rruz0011   LAm SOL DO   Estos son los acordes que nuestro robot identificó
desconocido   rruz0011   LAm SOL DO   Estos son los acordes que nuestro robot identificó
 

Estos son los acordes que nuestro robot identificó automaticamente.

 

Si queres hacer dos guitarras en este tema. La canción se toca con ritmo de vals mientras se hace el punteo la otra guitarra toca el rasguido.

 

el ritmo de vals se toca asi:

 

^ e-----0--0--| Repitiendo esto

^

 

B-----0--0--|

 

G-----0--0--| e, B y G se tocan las tres al mismo tiempo D-----------| para abajo con el acorde que uno quiera.

 

A--0--------|

 

E-----------|

 

Lam

Lam

Lam

Lam

Lam | Sol

Sol

e------------------8-|----8-----8-----8/10--10--8--7--6--7-|----------------7--|

 

B---5--6--5--4--5----|-5-----5-----5-----------------------|-5--6--5--4--5-----|

G--------------------|-------------------------------------|-------------------|

D--------------------|-------------------------------------|-------------------|

A--------------------|-------------------------------------|-------------------|

E--------------------|-------------------------------------|-------------------|

 

Sol

Sol

Sol | Do

Do

Do

Do

Do

e------7-----7-----7/8--8--7--5--4--5-|----------------5-|----5-----5-----6--6--5--3--1--3--|

B---5-----5-----5---------------------|-5--6--5--4--5----|-5-----5-----5--------------------|

G-------------------------------------|------------------|----------------------------------|

D-------------------------------------|------------------|----------------------------------|

A-------------------------------------|------------------|----------------------------------|

E-------------------------------------|------------------|----------------------------------|

Si estas tocando a dos guitarras la segunda guitarra también hace este punteo

 

e---1--0-----------------------------1--0-----------------0--5--|

 

B---------3--1--0-----------0--1--3--------3--1--0-----1--------|

G------------------2--1--2--------------------------2-----------|

D---------------------------------------------------------------|

A---------------------------------------------------------------|

 

E---------------------------------------------------------------|

e------------------8/12-|-12--10--0-|-12--10--0-|-12--10--0-|-12--10--0--|

 

B---5--6--5--4--5-------|------------------------------------------------|

G-----------------------|------------------------------------------------|

D-----------------------|------------------------------------------------|

A-----------------------|------------------------------------------------|

E-----------------------|------------------------------------------------|

e---10--8--0-|-10--8--0-|-10--8--0-|-10--8--0--|--8--7--0-|-8--7--0-|-8--7--0-|-8--7--0--|

 

B----------------------------------------------|-----------------------------------------|

G----------------------------------------------|-----------------------------------------|

D----------------------------------------------|-----------------------------------------|

A----------------------------------------------|-----------------------------------------|

E----------------------------------------------|-----------------------------------------|

e---7--5--0-|-7--5--0-|-7--5--0-|-7--5--0--|--5--3--0-|-5--3--0-|-5--3--0-|--5--3--0--|

B------------------------------------------|------------------------------------------|

G------------------------------------------|------------------------------------------|

D------------------------------------------|------------------------------------------|

09/05/2011

Rodolfo Ruiz, Quiero ser tu sombra: T…

A------------------------------------------|------------------------------------------|

E------------------------------------------|------------------------------------------|

e---5--3--3/1--1--|--1--0-----------------------------1--0-----------------0--5--|

B-----------------|--------3--1--0-----------0--1--3--------3--1--0-----1--------|

G-----------------|-----------------2--1--2--------------------------2-----------|

D-----------------|--------------------------------------------------------------|

A-----------------|--------------------------------------------------------------|

E-----------------|--------------------------------------------------------------|

Esta parte se repite cada vez mas rápido hasta el final de la canción. Para esto te aconsejo que utilices una pua haciendo un movimiento asi:

e-/\--\/--/\--| Abajo-Arriba-Abajo

e------------------8/12-|-12--10--0-|-12--10--0-|-12--10--0-|-12--10--0--|

B---5--6--5--4--5-------|------------------------------------------------|

G-----------------------|------------------------------------------------|

D-----------------------|------------------------------------------------|

A-----------------------|------------------------------------------------|

E-----------------------|------------------------------------------------|

e---10--8--0-|-10--8--0-|-10--8--0-|-10--8--0--|--8--7--0-|-8--7--0-|-8--7--0-|-8--7--0--|

B----------------------------------------------|-----------------------------------------|

G----------------------------------------------|-----------------------------------------|

D----------------------------------------------|-----------------------------------------|

A----------------------------------------------|-----------------------------------------|

E----------------------------------------------|-----------------------------------------|

e---7--5--0-|-7--5--0-|-7--5--0-|-7--5--0--|--5--3--0-|-5--3--0-|-5--3--0-|--5--3--0--|

B------------------------------------------|------------------------------------------|

G------------------------------------------|------------------------------------------|

D------------------------------------------|------------------------------------------|

A------------------------------------------|------------------------------------------|

E------------------------------------------|------------------------------------------|

e---5--3--3/1--1--|--1--0-----------------------------1--0-----------------0--5--|

B-----------------|--------3--1--0-----------0--1--3--------3--1--0-----1--------|

G-----------------|-----------------2--1--2--------------------------2-----------|

D-----------------|--------------------------------------------------------------|

A-----------------|--------------------------------------------------------------|

E-----------------|--------------------------------------------------------------|

Mas rápido

e------------------8/12-|-12--10--0-|-12--10--0-|-12--10--0-|-12--10--0--|

B---5--6--5--4--5-------|------------------------------------------------|

G-----------------------|------------------------------------------------|

D-----------------------|------------------------------------------------|

A-----------------------|------------------------------------------------|

E-----------------------|------------------------------------------------|

e---10--8--0-|-10--8--0-|-10--8--0-|-10--8--0--|--8--7--0-|-8--7--0-|-8--7--0-|-8--7--0--|

B----------------------------------------------|-----------------------------------------|

G----------------------------------------------|-----------------------------------------|

D----------------------------------------------|-----------------------------------------|

A----------------------------------------------|-----------------------------------------|

E----------------------------------------------|-----------------------------------------|

e---7--5--0-|-7--5--0-|-7--5--0-|-7--5--0--|--5--3--0-|-5--3--0-|-5--3--0-|--5--3--0--|

B------------------------------------------|------------------------------------------|

G------------------------------------------|------------------------------------------|

D------------------------------------------|------------------------------------------|

A------------------------------------------|------------------------------------------|

E------------------------------------------|------------------------------------------|

e---5--3--3/1--1--|--1--0-----------------------------1--0-----------------0--5--|

B-----------------|--------3--1--0-----------0--1--3--------3--1--0-----1--------|

G-----------------|-----------------2--1--2--------------------------2-----------|

D-----------------|--------------------------------------------------------------|

A-----------------|--------------------------------------------------------------|

E-----------------|--------------------------------------------------------------|

Mas rápido

e------------------8/12-|-12--10--0-|-12--10--0-|-12--10--0-|-12--10--0--|

B---5--6--5--4--5-------|------------------------------------------------|

G-----------------------|------------------------------------------------|

D-----------------------|------------------------------------------------|

A-----------------------|------------------------------------------------|

E-----------------------|------------------------------------------------|

09/05/2011

Rodolfo Ruiz, Quiero ser tu sombra: T…

e---10--8--0-|-10--8--0-|-10--8--0-|-10--8--0--|--8--7--0-|-8--7--0-|-8--7--0-|-8--7--0--|

B----------------------------------------------|-----------------------------------------|

G----------------------------------------------|-----------------------------------------|

D----------------------------------------------|-----------------------------------------|

A----------------------------------------------|-----------------------------------------|

E----------------------------------------------|-----------------------------------------|

e---7--5--0-|-7--5--0-|-7--5--0-|-7--5--0--|--5--3--0-|-5--3--0-|-5--3--0-|--5--3--0--|

B------------------------------------------|------------------------------------------|

G------------------------------------------|------------------------------------------|

D------------------------------------------|------------------------------------------|

A------------------------------------------|------------------------------------------|

E------------------------------------------|------------------------------------------|

e---5--3--3/1--1--|--1--0-----------------------------1--0-----------------0--5--|

 

B-----------------|--------3--1--0-----------0--1--3--------3--1--0-----1--------|

G-----------------|-----------------2--1--2--------------------------2-----------|

D-----------------|--------------------------------------------------------------|

A-----------------|--------------------------------------------------------------|

E-----------------|--------------------------------------------------------------|

Envía el tono de "Quiero ser tu sombra" a tu celular/móvil

Envía el tono de "Quiero ser tu sombra" a tu celular/móvil

Envía el tono de "Quiero ser tu sombra" a tu celular/móvil

Este fichero es trabajo propio de su transcriptor y representa su interpretación personal de la canción. El material contenido en esta página es para exclusivo uso privado, por lo que se prohibe su reproducción o retransmisión, así como su uso para fines comerciales.

 

© RED DE ENTRETENIMIENTO EN ESPAÑOL