Lasso - No Pares de Bailar

Música y Letra por Lasso.
Tablatura, 2011.
Intro
A#m
G#
E:------------6------------4-------|
B:--------6-6----------4-4---------|
G:-----6-6----------5-5------------|
D:--8-8----------6-6---------------|
A:---------------------------------|
E:---------------------------------|

A#m
G#
El sol juega con tu pelo,
A#m
G#
bailas y paras el tiempo, todos te están viendo.
A#m
G#
y nada normal es original, en trance estoy.
A#m
G#
y así defines arte sin siquiera despeinarte.
Puente:
A#m
D#
G#
E:----------------------------------|
B:-------------9---8----------------|
G:--6--8---10--10--8--6--8---10--5--|
D:--8--10--11---------8--10--11--6--|
A:-------------------------------6--|
E:----------------------------------|
G#
Lo lamento no se escribir,

Puente:
A#m
D#
G#
E:----------------------------------|
B:-------------9---8----------------|
G:--6--8---10--10--8--6--8---10--5--|
D:--8--10--11---------8--10--11--6--|
A:-------------------------------6--|
E:----------------------------------|
G#
ojalá pudiera describir,
F#
G#
en pocas palabras lo que eres para mí.
Repetir Intro.
A#m
G#
Veo cómo la luz
A#m
G#
salta de tu cara al suelo y regresa.
A#m
G#
Hay veces que te pierdo en el mar de gente,
A#m
G#
pero es fácil encontrarte porque eres diferente.
Puente:
A#m
D#
G#
E:----------------------------------|
B:-------------9---8----------------|
G:--6--8---10--10--8--6--8---10--5--|
D:--8--10--11---------8--10--11--6--|
A:-------------------------------6--|
E:----------------------------------|
G#
Lo lamento no se escribir,

Puente:
A#m
D#
G#
E:----------------------------------|
B:-------------9---8----------------|
G:--6--8---10--10--8--6--8---10--5--|
D:--8--10--11---------8--10--11--6--|
A:-------------------------------6--|
E:----------------------------------|
G#
ojalá pudiera describir,
F#
G#
en pocas palabras lo que eres para mí.

A#m
F#
Yo no busco
A#m
F#
sólo quiero
A#m
F#
Yo no busco
A#m
F#
sólo quiero
D# C#
No Pares de

G#
una
G#
que
G#
una
G#
que

A#m
F#
G#
A#m
razón para llamar tu atención,
D# C#
G#
no pares de bailar.
A#m
F#
G#
A#m
razón para entrar en tu corazón,
D# C#
G#
no pares de bailar.
G#
bailar

F#
G#
en pocas palabras eres todo para mí.
F#
G#
en pocas palabras eres todo para mí.
F#
G#
en pocas palabras eres todo para, todo para,
A#m
G#
mí, mí, mí, hey!
Repetir Intro.

Acordes Utilizados en la canción:
A#m G#
F#
D#
C#
E:-----------------------------------|
B:-----------------8----6------------|
G:--6----5----3----8----6------------|
D:--8----6----4----8----6------------|
A:--8----6----4----6----4------------|
E:--6----4----2----------------------|

Sign up to vote on this title
UsefulNot useful