Está en la página 1de 2

ACORDES:> D Dsus A G Bm

Esta canción INICIA ASI.- solo la bateria y la guitarra 4/4


D-Dsus
aqui inicia el piano
D Dsus D Dsus
Bendeciré tu nombre Oh Dios
A G D Dsus
en medio de la congregación te cantaré
D Dsus D Dsus
Exaltaré tu nombre Oh Dios
A G D
en medio de tu pueblo Dios te exaltaré
en esta parte entra la guitarra electrica con unos puntos mas
homenos asi
D Dsus
Bendeciré tu
D Dsus
G------------------2--------2---
B----------3~--------2--3-------
e---2---3-----------------------
D Dsus
tu nombre Oh Dios
D Dsus
G-------------------2--------2----
B-----------3~---------2--3-------
e---2---3-------------------------
A G D Dsus
en medio de la congregación te cantaré
D Dsus
G------------------2--------2---
B----------3~--------2--3-------
e---2---3-----------------------
D Dsus
Exaltaré
D Dsus
G------------------2--------2---
B----------3~--------2--3-------
e---2---3-----------------------

D Dsus
tu nombre Oh Dios
D Dsus
G------------------2--------2---
B----------3~--------2--3-------
e---2---3-----------------------
A G D
en medio de tu pueblo Dios te exaltaré
luego aqui tiene unos puntos asi

Bm G D A
Oh Señor tu conoces bien lo profundo de mi corazón
B---3--- B----3--- B----3~-- G--2-----2-
e-2----- e--3----- e-2-3---- B----2-3---

Bm G D A
Y el anhelo que hay dentro de mi es poder adorarte Señor
B---3--- B----3--- B----3~-- G--2-----2-
e-2----- e--3----- e-2-3---- B----2-3---
ESTA PARTE DEL CORO LA GUITARRA VA Rasgueada
D A
Eres Dios, eres rey y Señor, eres Dios
G
yo te adoro a ti, te adoro a ti
D A G
Todos verán y sabrán que eres tu Señor sobre todo///
D A G
Eres Dios
aqui la bateria hace un solo nada mas una vez.-
Eres Dios, eres rey y Señor, eres Dios
yo te adoro a ti, te adoro a ti
Todos verán y sabrán que eres tu Señor sobre todo
coro
D A
Eres Dios, eres rey y Señor, eres Dios
G
yo te adoro a ti, te adoro a ti
D A G
Todos verán y sabrán que eres tu Señor sobre todo/
D A G
Eres Dios
D Dsus
G------------------2--------2---
B----------3~--------2--3-------
e---2---3-----------------------
y termina con el punteo de la primera estrofa .-
espero que les sirva es mi primera transcripcion.-
esto es para aquellos que quieren ser mas que musicos para la honra de Dios
un saludo a la iglesia BETHANIA EN MOMOS, TOTO.- GUATEMALA.-
ALGUNA DUDA DE ESTE CANTO ESCRIBANME A MI EMAIL denil_musico@hotmail.com
bendiciones.-